  0
SECTION
  2
HEADER
  9
$ACADVER
  1
AC1032
  9
$ACADMAINTVER
 90
      251
  9
$DWGCODEPAGE
  3
ANSI_932
  9
$REQUIREDVERSIONS
160
                 0
  9
$INSBASE
 10
0.0
 20
0.0
 30
0.0
  9
$EXTMIN
 10
1.000000000000000E+20
 20
1.000000000000000E+20
 30
1.000000000000000E+20
  9
$EXTMAX
 10
-1.000000000000000E+20
 20
-1.000000000000000E+20
 30
-1.000000000000000E+20
  9
$LIMMIN
 10
0.0
 20
0.0
  9
$LIMMAX
 10
12.0
 20
9.0
  9
$ORTHOMODE
 70
     0
  9
$REGENMODE
 70
     1
  9
$FILLMODE
 70
     1
  9
$QTEXTMODE
 70
     0
  9
$MIRRTEXT
 70
     0
  9
$LTSCALE
 40
1.0
  9
$ATTMODE
 70
     1
  9
$TEXTSIZE
 40
0.2
  9
$TRACEWID
 40
0.05
  9
$TEXTSTYLE
  7
Standard
  9
$CLAYER
  8
0
  9
$CELTYPE
  6
ByLayer
  9
$CECOLOR
 62
   256
  9
$CELTSCALE
 40
1.0
  9
$DISPSILH
 70
     0
  9
$DIMSCALE
 40
1.0
  9
$DIMASZ
 40
0.18
  9
$DIMEXO
 40
0.0625
  9
$DIMDLI
 40
0.38
  9
$DIMRND
 40
0.0
  9
$DIMDLE
 40
0.0
  9
$DIMEXE
 40
0.18
  9
$DIMTP
 40
0.0
  9
$DIMTM
 40
0.0
  9
$DIMTXT
 40
0.18
  9
$DIMCEN
 40
0.09
  9
$DIMTSZ
 40
0.0
  9
$DIMTOL
 70
     0
  9
$DIMLIM
 70
     0
  9
$DIMTIH
 70
     1
  9
$DIMTOH
 70
     1
  9
$DIMSE1
 70
     0
  9
$DIMSE2
 70
     0
  9
$DIMTAD
 70
     0
  9
$DIMZIN
 70
     0
  9
$DIMBLK
  1

  9
$DIMASO
 70
     1
  9
$DIMSHO
 70
     1
  9
$DIMPOST
  1

  9
$DIMAPOST
  1

  9
$DIMALT
 70
     0
  9
$DIMALTD
 70
     2
  9
$DIMALTF
 40
25.4
  9
$DIMLFAC
 40
1.0
  9
$DIMTOFL
 70
     0
  9
$DIMTVP
 40
0.0
  9
$DIMTIX
 70
     0
  9
$DIMSOXD
 70
     0
  9
$DIMSAH
 70
     0
  9
$DIMBLK1
  1

  9
$DIMBLK2
  1

  9
$DIMSTYLE
  2
Standard
  9
$DIMCLRD
 70
     0
  9
$DIMCLRE
 70
     0
  9
$DIMCLRT
 70
     0
  9
$DIMTFAC
 40
1.0
  9
$DIMGAP
 40
0.09
  9
$DIMJUST
 70
     0
  9
$DIMSD1
 70
     0
  9
$DIMSD2
 70
     0
  9
$DIMTOLJ
 70
     1
  9
$DIMTZIN
 70
     0
  9
$DIMALTZ
 70
     0
  9
$DIMALTTZ
 70
     0
  9
$DIMUPT
 70
     0
  9
$DIMDEC
 70
     4
  9
$DIMTDEC
 70
     4
  9
$DIMALTU
 70
     2
  9
$DIMALTTD
 70
     2
  9
$DIMTXSTY
  7
Standard
  9
$DIMAUNIT
 70
     0
  9
$DIMADEC
 70
     0
  9
$DIMALTRND
 40
0.0
  9
$DIMAZIN
 70
     0
  9
$DIMDSEP
 70
    46
  9
$DIMATFIT
 70
     3
  9
$DIMFRAC
 70
     0
  9
$DIMLDRBLK
  1

  9
$DIMLUNIT
 70
     2
  9
$DIMLWD
 70
    -2
  9
$DIMLWE
 70
    -2
  9
$DIMTMOVE
 70
     0
  9
$DIMFXL
 40
1.0
  9
$DIMFXLON
 70
     0
  9
$DIMJOGANG
 40
0.7853981633974483
  9
$DIMTFILL
 70
     0
  9
$DIMTFILLCLR
 70
     0
  9
$DIMARCSYM
 70
     0
  9
$DIMLTYPE
  6

  9
$DIMLTEX1
  6

  9
$DIMLTEX2
  6

  9
$DIMTXTDIRECTION
 70
     0
  9
$LUNITS
 70
     2
  9
$LUPREC
 70
     4
  9
$SKETCHINC
 40
0.1
  9
$FILLETRAD
 40
0.0
  9
$AUNITS
 70
     0
  9
$AUPREC
 70
     0
  9
$MENU
  1
.
  9
$ELEVATION
 40
0.0
  9
$PELEVATION
 40
0.0
  9
$THICKNESS
 40
0.0
  9
$LIMCHECK
 70
     0
  9
$CHAMFERA
 40
0.0
  9
$CHAMFERB
 40
0.0
  9
$CHAMFERC
 40
0.0
  9
$CHAMFERD
 40
0.0
  9
$SKPOLY
 70
     0
  9
$TDCREATE
 40
2460367.436041667
  9
$TDUCREATE
 40
2460367.061041667
  9
$TDUPDATE
 40
2460367.436041667
  9
$TDUUPDATE
 40
2460367.061041667
  9
$TDINDWG
 40
0.0000000000
  9
$TDUSRTIMER
 40
0.0000000000
  9
$USRTIMER
 70
     1
  9
$ANGBASE
 50
0.0
  9
$ANGDIR
 70
     0
  9
$PDMODE
 70
     0
  9
$PDSIZE
 40
0.0
  9
$PLINEWID
 40
0.0
  9
$SPLFRAME
 70
     0
  9
$SPLINETYPE
 70
     6
  9
$SPLINESEGS
 70
     8
  9
$HANDSEED
  5
3AF
  9
$SURFTAB1
 70
     6
  9
$SURFTAB2
 70
     6
  9
$SURFTYPE
 70
     6
  9
$SURFU
 70
     6
  9
$SURFV
 70
     6
  9
$UCSBASE
  2

  9
$UCSNAME
  2

  9
$UCSORG
 10
0.0
 20
0.0
 30
0.0
  9
$UCSXDIR
 10
1.0
 20
0.0
 30
0.0
  9
$UCSYDIR
 10
0.0
 20
1.0
 30
0.0
  9
$UCSORTHOREF
  2

  9
$UCSORTHOVIEW
 70
     0
  9
$UCSORGTOP
 10
0.0
 20
0.0
 30
0.0
  9
$UCSORGBOTTOM
 10
0.0
 20
0.0
 30
0.0
  9
$UCSORGLEFT
 10
0.0
 20
0.0
 30
0.0
  9
$UCSORGRIGHT
 10
0.0
 20
0.0
 30
0.0
  9
$UCSORGFRONT
 10
0.0
 20
0.0
 30
0.0
  9
$UCSORGBACK
 10
0.0
 20
0.0
 30
0.0
  9
$PUCSBASE
  2

  9
$PUCSNAME
  2

  9
$PUCSORG
 10
0.0
 20
0.0
 30
0.0
  9
$PUCSXDIR
 10
1.0
 20
0.0
 30
0.0
  9
$PUCSYDIR
 10
0.0
 20
1.0
 30
0.0
  9
$PUCSORTHOREF
  2

  9
$PUCSORTHOVIEW
 70
     0
  9
$PUCSORGTOP
 10
0.0
 20
0.0
 30
0.0
  9
$PUCSORGBOTTOM
 10
0.0
 20
0.0
 30
0.0
  9
$PUCSORGLEFT
 10
0.0
 20
0.0
 30
0.0
  9
$PUCSORGRIGHT
 10
0.0
 20
0.0
 30
0.0
  9
$PUCSORGFRONT
 10
0.0
 20
0.0
 30
0.0
  9
$PUCSORGBACK
 10
0.0
 20
0.0
 30
0.0
  9
$USERI1
 70
     0
  9
$USERI2
 70
     0
  9
$USERI3
 70
     0
  9
$USERI4
 70
     0
  9
$USERI5
 70
     0
  9
$USERR1
 40
0.0
  9
$USERR2
 40
0.0
  9
$USERR3
 40
0.0
  9
$USERR4
 40
0.0
  9
$USERR5
 40
0.0
  9
$WORLDVIEW
 70
     1
  9
$SHADEDGE
 70
     3
  9
$SHADEDIF
 70
    70
  9
$TILEMODE
 70
     1
  9
$MAXACTVP
 70
    64
  9
$PINSBASE
 10
0.0
 20
0.0
 30
0.0
  9
$PLIMCHECK
 70
     0
  9
$PEXTMIN
 10
1.000000000000000E+20
 20
1.000000000000000E+20
 30
1.000000000000000E+20
  9
$PEXTMAX
 10
-1.000000000000000E+20
 20
-1.000000000000000E+20
 30
-1.000000000000000E+20
  9
$PLIMMIN
 10
0.0
 20
0.0
  9
$PLIMMAX
 10
12.0
 20
9.0
  9
$UNITMODE
 70
     0
  9
$VISRETAIN
 70
     1
  9
$PLINEGEN
 70
     0
  9
$PSLTSCALE
 70
     1
  9
$TREEDEPTH
 70
  3020
  9
$CMLSTYLE
  2
Standard
  9
$CMLJUST
 70
     0
  9
$CMLSCALE
 40
1.0
  9
$PROXYGRAPHICS
 70
     1
  9
$MEASUREMENT
 70
     0
  9
$CELWEIGHT
370
    -1
  9
$ENDCAPS
280
     0
  9
$JOINSTYLE
280
     0
  9
$LWDISPLAY
290
     1
  9
$INSUNITS
 70
     4
  9
$HYPERLINKBASE
  1

  9
$STYLESHEET
  1

  9
$XEDIT
290
     1
  9
$CEPSNTYPE
380
     0
  9
$PSTYLEMODE
290
     1
  9
$FINGERPRINTGUID
  2
{9400F69F-84CE-3D47-9827-C383682B7FDE}
  9
$VERSIONGUID
  2
{666EB380-E609-824C-B0ED-D04DF72FB139}
  9
$EXTNAMES
290
     1
  9
$PSVPSCALE
 40
0.0
  9
$OLESTARTUP
290
     0
  9
$SORTENTS
280
   127
  9
$INDEXCTL
280
     0
  9
$HIDETEXT
280
     1
  9
$XCLIPFRAME
280
     2
  9
$HALOGAP
280
     0
  9
$OBSCOLOR
 70
   257
  9
$OBSLTYPE
280
     0
  9
$INTERSECTIONDISPLAY
280
     0
  9
$INTERSECTIONCOLOR
 70
   257
  9
$DIMASSOC
280
     2
  9
$PROJECTNAME
  1

  9
$CAMERADISPLAY
290
     0
  9
$LENSLENGTH
 40
50.0
  9
$CAMERAHEIGHT
 40
0.0
  9
$STEPSPERSEC
 40
2.0
  9
$STEPSIZE
 40
6.0
  9
$3DDWFPREC
 40
2.0
  9
$PSOLWIDTH
 40
0.25
  9
$PSOLHEIGHT
 40
4.0
  9
$LOFTANG1
 40
1.570796326794896
  9
$LOFTANG2
 40
1.570796326794896
  9
$LOFTMAG1
 40
0.0
  9
$LOFTMAG2
 40
0.0
  9
$LOFTPARAM
 70
     7
  9
$LOFTNORMALS
280
     1
  9
$LATITUDE
 40
37.795
  9
$LONGITUDE
 40
-122.394
  9
$NORTHDIRECTION
 40
0.0
  9
$TIMEZONE
 70
 -8000
  9
$LIGHTGLYPHDISPLAY
280
     1
  9
$TILEMODELIGHTSYNCH
280
     1
  9
$CMATERIAL
347
11
  9
$SOLIDHIST
280
     0
  9
$SHOWHIST
280
     1
  9
$DWFFRAME
280
     2
  9
$DGNFRAME
280
     0
  9
$REALWORLDSCALE
290
     1
  9
$INTERFERECOLOR
 62
     1
  9
$INTERFEREOBJVS
345
33
  9
$INTERFEREVPVS
346
30
  9
$CSHADOW
280
     0
  9
$SHADOWPLANELOCATION
 40
0.0
  0
ENDSEC
  0
SECTION
  2
CLASSES
  0
CLASS
  1
ACDBDICTIONARYWDFLT
  2
AcDbDictionaryWithDefault
  3
ObjectDBX Classes
 90
        0
 91
        1
280
     0
281
     0
  0
CLASS
  1
MATERIAL
  2
AcDbMaterial
  3
ObjectDBX Classes
 90
     1153
 91
        3
280
     0
281
     0
  0
CLASS
  1
VISUALSTYLE
  2
AcDbVisualStyle
  3
ObjectDBX Classes
 90
     4095
 91
       24
280
     0
281
     0
  0
CLASS
  1
SCALE
  2
AcDbScale
  3
ObjectDBX Classes
 90
     1153
 91
       17
280
     0
281
     0
  0
CLASS
  1
TABLESTYLE
  2
AcDbTableStyle
  3
ObjectDBX Classes
 90
     4095
 91
        1
280
     0
281
     0
  0
CLASS
  1
MLEADERSTYLE
  2
AcDbMLeaderStyle
  3
ACDB_MLEADERSTYLE_CLASS
 90
     4095
 91
        1
280
     0
281
     0
  0
CLASS
  1
ACDBSECTIONVIEWSTYLE
  2
AcDbSectionViewStyle
  3
ObjectDBX Classes
 90
     1025
 91
        1
280
     0
281
     0
  0
CLASS
  1
ACDBDETAILVIEWSTYLE
  2
AcDbDetailViewStyle
  3
ObjectDBX Classes
 90
     1025
 91
        1
280
     0
281
     0
  0
CLASS
  1
DICTIONARYVAR
  2
AcDbDictionaryVar
  3
ObjectDBX Classes
 90
        0
 91
        5
280
     0
281
     0
  0
CLASS
  1
CELLSTYLEMAP
  2
AcDbCellStyleMap
  3
ObjectDBX Classes
 90
     1152
 91
        1
280
     0
281
     0
  0
ENDSEC
  0
SECTION
  2
TABLES
  0
TABLE
  2
VPORT
  5
8
330
0
100
AcDbSymbolTable
 70
     1
  0
VPORT
  5
57
330
8
100
AcDbSymbolTableRecord
100
AcDbViewportTableRecord
  2
*Active
 70
     0
 10
0.0
 20
0.0
 11
1.0
 21
1.0
 12
0.0
 22
0.0
 13
0.0
 23
0.0
 14
1.0
 24
1.0
 15
0.0
 25
0.0
 16
0.0
 26
0.0
 36
1.0
 17
148.5194444073144
 27
104.9513888626512
 37
0.0
 40
214.355833279808
 41
1.413648747070076
 42
50.0
 43
0.0
 44
0.0
 50
0.0
 51
0.0
 71
     0
 72
   100
 73
     1
 74
     1
 75
     0
 76
     0
 77
     0
 78
     0
281
     0
 65
     1
110
0.0
120
0.0
130
0.0
111
1.0
121
0.0
131
0.0
112
0.0
122
1.0
132
0.0
 79
     0
146
0.0
 60
     3
 61
     5
292
     1
282
     1
141
0.0
142
0.0
 63
   250
421
  3355443
  0
ENDTAB
  0
TABLE
  2
LTYPE
  5
5
330
0
100
AcDbSymbolTable
 70
    31
  0
LTYPE
  5
5B
330
5
100
AcDbSymbolTableRecord
100
AcDbLinetypeTableRecord
  2
ByBlock
 70
     0
  3

 72
    65
 73
     0
 40
0.0
  0
LTYPE
  5
5C
330
5
100
AcDbSymbolTableRecord
100
AcDbLinetypeTableRecord
  2
ByLayer
 70
     0
  3

 72
    65
 73
     0
 40
0.0
  0
LTYPE
  5
5D
330
5
100
AcDbSymbolTableRecord
100
AcDbLinetypeTableRecord
  2
Continuous
 70
     0
  3
Solid line
 72
    65
 73
     0
 40
0.0
  0
LTYPE
  5
25E
330
5
100
AcDbSymbolTableRecord
100
AcDbLinetypeTableRecord
  2
AI-Linetype-0
 70
     0
  3
Adobe Illustrator Linetype No. 0
 72
    65
 73
     2
 40
2.019519136837891
 49
1.34634609122526
 74
     0
 49
-0.6731730456126304
 74
     0
  0
LTYPE
  5
260
330
5
100
AcDbSymbolTableRecord
100
AcDbLinetypeTableRecord
  2
AI-Linetype-1
 70
     0
  3
Adobe Illustrator Linetype No. 1
 72
    65
 73
     2
 40
2.019519136837891
 49
1.34634609122526
 74
     0
 49
-0.6731730456126304
 74
     0
  0
LTYPE
  5
262
330
5
100
AcDbSymbolTableRecord
100
AcDbLinetypeTableRecord
  2
AI-Linetype-2
 70
     0
  3
Adobe Illustrator Linetype No. 2
 72
    65
 73
     2
 40
2.019519136837891
 49
1.34634609122526
 74
     0
 49
-0.6731730456126304
 74
     0
  0
LTYPE
  5
264
330
5
100
AcDbSymbolTableRecord
100
AcDbLinetypeTableRecord
  2
AI-Linetype-3
 70
     0
  3
Adobe Illustrator Linetype No. 3
 72
    65
 73
     2
 40
2.019519136837891
 49
1.34634609122526
 74
     0
 49
-0.6731730456126304
 74
     0
  0
LTYPE
  5
266
330
5
100
AcDbSymbolTableRecord
100
AcDbLinetypeTableRecord
  2
AI-Linetype-4
 70
     0
  3
Adobe Illustrator Linetype No. 4
 72
    65
 73
     2
 40
2.019519136837891
 49
1.34634609122526
 74
     0
 49
-0.6731730456126304
 74
     0
  0
LTYPE
  5
268
330
5
100
AcDbSymbolTableRecord
100
AcDbLinetypeTableRecord
  2
AI-Linetype-5
 70
     0
  3
Adobe Illustrator Linetype No. 5
 72
    65
 73
     2
 40
2.019519136837891
 49
1.34634609122526
 74
     0
 49
-0.6731730456126304
 74
     0
  0
LTYPE
  5
26A
330
5
100
AcDbSymbolTableRecord
100
AcDbLinetypeTableRecord
  2
AI-Linetype-6
 70
     0
  3
Adobe Illustrator Linetype No. 6
 72
    65
 73
     2
 40
2.019519136837891
 49
1.34634609122526
 74
     0
 49
-0.6731730456126304
 74
     0
  0
LTYPE
  5
26C
330
5
100
AcDbSymbolTableRecord
100
AcDbLinetypeTableRecord
  2
AI-Linetype-7
 70
     0
  3
Adobe Illustrator Linetype No. 7
 72
    65
 73
     2
 40
2.019519136837891
 49
1.34634609122526
 74
     0
 49
-0.6731730456126304
 74
     0
  0
LTYPE
  5
26E
330
5
100
AcDbSymbolTableRecord
100
AcDbLinetypeTableRecord
  2
AI-Linetype-8
 70
     0
  3
Adobe Illustrator Linetype No. 8
 72
    65
 73
     2
 40
2.019519136837891
 49
1.34634609122526
 74
     0
 49
-0.6731730456126304
 74
     0
  0
LTYPE
  5
270
330
5
100
AcDbSymbolTableRecord
100
AcDbLinetypeTableRecord
  2
AI-Linetype-9
 70
     0
  3
Adobe Illustrator Linetype No. 9
 72
    65
 73
     2
 40
2.019519136837891
 49
1.34634609122526
 74
     0
 49
-0.6731730456126304
 74
     0
  0
LTYPE
  5
272
330
5
100
AcDbSymbolTableRecord
100
AcDbLinetypeTableRecord
  2
AI-Linetype-10
 70
     0
  3
Adobe Illustrator Linetype No. 10
 72
    65
 73
     2
 40
2.019519136837891
 49
1.34634609122526
 74
     0
 49
-0.6731730456126304
 74
     0
  0
LTYPE
  5
274
330
5
100
AcDbSymbolTableRecord
100
AcDbLinetypeTableRecord
  2
AI-Linetype-11
 70
     0
  3
Adobe Illustrator Linetype No. 11
 72
    65
 73
     2
 40
2.019519136837891
 49
1.34634609122526
 74
     0
 49
-0.6731730456126304
 74
     0
  0
LTYPE
  5
276
330
5
100
AcDbSymbolTableRecord
100
AcDbLinetypeTableRecord
  2
AI-Linetype-12
 70
     0
  3
Adobe Illustrator Linetype No. 12
 72
    65
 73
     2
 40
2.019519136837891
 49
1.34634609122526
 74
     0
 49
-0.6731730456126304
 74
     0
  0
LTYPE
  5
278
330
5
100
AcDbSymbolTableRecord
100
AcDbLinetypeTableRecord
  2
AI-Linetype-13
 70
     0
  3
Adobe Illustrator Linetype No. 13
 72
    65
 73
     2
 40
2.019519136837891
 49
1.34634609122526
 74
     0
 49
-0.6731730456126304
 74
     0
  0
LTYPE
  5
27A
330
5
100
AcDbSymbolTableRecord
100
AcDbLinetypeTableRecord
  2
AI-Linetype-14
 70
     0
  3
Adobe Illustrator Linetype No. 14
 72
    65
 73
     2
 40
2.019519136837891
 49
1.34634609122526
 74
     0
 49
-0.6731730456126304
 74
     0
  0
LTYPE
  5
27C
330
5
100
AcDbSymbolTableRecord
100
AcDbLinetypeTableRecord
  2
AI-Linetype-15
 70
     0
  3
Adobe Illustrator Linetype No. 15
 72
    65
 73
     2
 40
2.019519136837891
 49
1.34634609122526
 74
     0
 49
-0.6731730456126304
 74
     0
  0
LTYPE
  5
27E
330
5
100
AcDbSymbolTableRecord
100
AcDbLinetypeTableRecord
  2
AI-Linetype-16
 70
     0
  3
Adobe Illustrator Linetype No. 16
 72
    65
 73
     2
 40
2.019519136837891
 49
1.34634609122526
 74
     0
 49
-0.6731730456126304
 74
     0
  0
LTYPE
  5
280
330
5
100
AcDbSymbolTableRecord
100
AcDbLinetypeTableRecord
  2
AI-Linetype-17
 70
     0
  3
Adobe Illustrator Linetype No. 17
 72
    65
 73
     2
 40
2.019519136837891
 49
1.34634609122526
 74
     0
 49
-0.6731730456126304
 74
     0
  0
LTYPE
  5
282
330
5
100
AcDbSymbolTableRecord
100
AcDbLinetypeTableRecord
  2
AI-Linetype-18
 70
     0
  3
Adobe Illustrator Linetype No. 18
 72
    65
 73
     2
 40
2.019519136837891
 49
1.34634609122526
 74
     0
 49
-0.6731730456126304
 74
     0
  0
LTYPE
  5
284
330
5
100
AcDbSymbolTableRecord
100
AcDbLinetypeTableRecord
  2
AI-Linetype-19
 70
     0
  3
Adobe Illustrator Linetype No. 19
 72
    65
 73
     2
 40
2.019519136837891
 49
1.34634609122526
 74
     0
 49
-0.6731730456126304
 74
     0
  0
LTYPE
  5
286
330
5
100
AcDbSymbolTableRecord
100
AcDbLinetypeTableRecord
  2
AI-Linetype-20
 70
     0
  3
Adobe Illustrator Linetype No. 20
 72
    65
 73
     2
 40
2.019519136837891
 49
1.34634609122526
 74
     0
 49
-0.6731730456126304
 74
     0
  0
LTYPE
  5
288
330
5
100
AcDbSymbolTableRecord
100
AcDbLinetypeTableRecord
  2
AI-Linetype-21
 70
     0
  3
Adobe Illustrator Linetype No. 21
 72
    65
 73
     2
 40
2.019519136837891
 49
1.34634609122526
 74
     0
 49
-0.6731730456126304
 74
     0
  0
LTYPE
  5
28A
330
5
100
AcDbSymbolTableRecord
100
AcDbLinetypeTableRecord
  2
AI-Linetype-22
 70
     0
  3
Adobe Illustrator Linetype No. 22
 72
    65
 73
     2
 40
2.019519136837891
 49
1.34634609122526
 74
     0
 49
-0.6731730456126304
 74
     0
  0
LTYPE
  5
28C
330
5
100
AcDbSymbolTableRecord
100
AcDbLinetypeTableRecord
  2
AI-Linetype-23
 70
     0
  3
Adobe Illustrator Linetype No. 23
 72
    65
 73
     2
 40
2.019519136837891
 49
1.34634609122526
 74
     0
 49
-0.6731730456126304
 74
     0
  0
LTYPE
  5
28E
330
5
100
AcDbSymbolTableRecord
100
AcDbLinetypeTableRecord
  2
AI-Linetype-24
 70
     0
  3
Adobe Illustrator Linetype No. 24
 72
    65
 73
     2
 40
2.019519136837891
 49
1.34634609122526
 74
     0
 49
-0.6731730456126304
 74
     0
  0
LTYPE
  5
290
330
5
100
AcDbSymbolTableRecord
100
AcDbLinetypeTableRecord
  2
AI-Linetype-25
 70
     0
  3
Adobe Illustrator Linetype No. 25
 72
    65
 73
     2
 40
2.019519136837891
 49
1.34634609122526
 74
     0
 49
-0.6731730456126304
 74
     0
  0
LTYPE
  5
292
330
5
100
AcDbSymbolTableRecord
100
AcDbLinetypeTableRecord
  2
AI-Linetype-26
 70
     0
  3
Adobe Illustrator Linetype No. 26
 72
    65
 73
     2
 40
2.019519136837891
 49
1.34634609122526
 74
     0
 49
-0.6731730456126304
 74
     0
  0
LTYPE
  5
294
330
5
100
AcDbSymbolTableRecord
100
AcDbLinetypeTableRecord
  2
AI-Linetype-27
 70
     0
  3
Adobe Illustrator Linetype No. 27
 72
    65
 73
     2
 40
2.019519136837891
 49
1.34634609122526
 74
     0
 49
-0.6731730456126304
 74
     0
  0
LTYPE
  5
296
330
5
100
AcDbSymbolTableRecord
100
AcDbLinetypeTableRecord
  2
AI-Linetype-28
 70
     0
  3
Adobe Illustrator Linetype No. 28
 72
    65
 73
     2
 40
2.019519136837891
 49
1.34634609122526
 74
     0
 49
-0.6731730456126304
 74
     0
  0
LTYPE
  5
298
330
5
100
AcDbSymbolTableRecord
100
AcDbLinetypeTableRecord
  2
AI-Linetype-29
 70
     0
  3
Adobe Illustrator Linetype No. 29
 72
    65
 73
     2
 40
2.019519136837891
 49
1.34634609122526
 74
     0
 49
-0.6731730456126304
 74
     0
  0
ENDTAB
  0
TABLE
  2
LAYER
  5
2
330
0
100
AcDbSymbolTable
 70
     8
  0
LAYER
  5
54
330
2
100
AcDbSymbolTableRecord
100
AcDbLayerTableRecord
  2
0
 70
     0
 62
     7
  6
Continuous
370
     0
390
F
347
21
348
0
  0
LAYER
  5
78
330
2
100
AcDbSymbolTableRecord
100
AcDbLayerTableRecord
  2
Defpoints
 70
     0
 62
     7
  6
Continuous
290
     0
370
     0
390
F
347
21
348
0
  0
LAYER
  5
7A
330
2
100
AcDbSymbolTableRecord
100
AcDbLayerTableRecord
  2
waku
 70
     0
 62
     7
  6
Continuous
370
     0
390
F
347
21
348
0
  0
LAYER
  5
91
330
2
100
AcDbSymbolTableRecord
100
AcDbLayerTableRecord
  2
moji
 70
     0
 62
     7
  6
Continuous
370
     0
390
F
347
21
348
0
  0
LAYER
  5
1E6
330
2
100
AcDbSymbolTableRecord
100
AcDbLayerTableRecord
  2
sugata
 70
     0
 62
     7
  6
Continuous
370
     0
390
F
347
21
348
0
  0
LAYER
  5
240
330
2
100
AcDbSymbolTableRecord
100
AcDbLayerTableRecord
  2
sakuzu
 70
     0
 62
     7
  6
Continuous
370
     0
390
F
347
21
348
0
  0
LAYER
  5
25C
330
2
100
AcDbSymbolTableRecord
100
AcDbLayerTableRecord
  2
kaiko
 70
     0
 62
     7
  6
Continuous
370
     0
390
F
347
21
348
0
  0
LAYER
  5
299
330
2
100
AcDbSymbolTableRecord
100
AcDbLayerTableRecord
  2
sunpo
 70
     0
 62
     7
  6
Continuous
370
     0
390
F
347
21
348
0
  0
ENDTAB
  0
TABLE
  2
STYLE
  5
3
330
0
100
AcDbSymbolTable
 70
     2
  0
STYLE
  5
55
330
3
100
AcDbSymbolTableRecord
100
AcDbTextStyleTableRecord
  2
Standard
 70
     0
 40
0.0
 41
1.0
 50
0.0
 71
     0
 42
0.2
  3
txt
  4

  0
STYLE
  5
5A
330
3
100
AcDbSymbolTableRecord
100
AcDbTextStyleTableRecord
  2
Annotative
 70
     0
 40
0.0
 41
1.0
 50
0.0
 71
     0
 42
0.2
  3
txt
  4

1001
AcadAnnotative
1000
AnnotativeData
1002
{
1070
     1
1070
     1
1002
}
  0
ENDTAB
  0
TABLE
  2
VIEW
  5
6
330
0
100
AcDbSymbolTable
 70
     0
  0
ENDTAB
  0
TABLE
  2
UCS
  5
7
330
0
100
AcDbSymbolTable
 70
     0
  0
ENDTAB
  0
TABLE
  2
APPID
  5
9
330
0
100
AcDbSymbolTable
 70
     2
  0
APPID
  5
56
330
9
100
AcDbSymbolTableRecord
100
AcDbRegAppTableRecord
  2
ACAD
 70
     0
  0
APPID
  5
5E
330
9
100
AcDbSymbolTableRecord
100
AcDbRegAppTableRecord
  2
AcadAnnotative
 70
     0
  0
ENDTAB
  0
TABLE
  2
DIMSTYLE
  5
A
330
0
100
AcDbSymbolTable
 70
     2
100
AcDbDimStyleTable
 71
     0
  0
DIMSTYLE
105
58
330
A
100
AcDbSymbolTableRecord
100
AcDbDimStyleTableRecord
  2
Standard
 70
     0
340
55
  0
DIMSTYLE
105
59
330
A
100
AcDbSymbolTableRecord
100
AcDbDimStyleTableRecord
  2
Annotative
 70
     0
340
55
1001
AcadAnnotative
1000
AnnotativeData
1002
{
1070
     1
1070
     1
1002
}
  0
ENDTAB
  0
TABLE
  2
BLOCK_RECORD
  5
1
330
0
100
AcDbSymbolTable
 70
    49
  0
BLOCK_RECORD
  5
70
330
1
100
AcDbSymbolTableRecord
100
AcDbBlockTableRecord
  2
*Model_Space
340
73
 70
     0
280
     1
281
     0
  0
BLOCK_RECORD
  5
6C
330
1
100
AcDbSymbolTableRecord
100
AcDbBlockTableRecord
  2
*Paper_Space
340
6F
 70
     0
280
     1
281
     0
  0
BLOCK_RECORD
  5
74
330
1
100
AcDbSymbolTableRecord
100
AcDbBlockTableRecord
  2
*Paper_Space0
340
77
 70
     0
280
     1
281
     0
  0
BLOCK_RECORD
  5
9C
330
1
100
AcDbSymbolTableRecord
100
AcDbBlockTableRecord
  2
Block_0
340
0
102
{BLKREFS
331
9D
102
}
 70
     0
280
     1
281
     0
  0
BLOCK_RECORD
  5
D3
330
1
100
AcDbSymbolTableRecord
100
AcDbBlockTableRecord
  2
Block_1
340
0
102
{BLKREFS
331
D4
102
}
 70
     0
280
     1
281
     0
  0
BLOCK_RECORD
  5
E0
330
1
100
AcDbSymbolTableRecord
100
AcDbBlockTableRecord
  2
Block_2
340
0
102
{BLKREFS
331
E1
102
}
 70
     0
280
     1
281
     0
  0
BLOCK_RECORD
  5
E6
330
1
100
AcDbSymbolTableRecord
100
AcDbBlockTableRecord
  2
Block_3
340
0
102
{BLKREFS
331
E7
102
}
 70
     0
280
     1
281
     0
  0
BLOCK_RECORD
  5
F2
330
1
100
AcDbSymbolTableRecord
100
AcDbBlockTableRecord
  2
Block_4
340
0
102
{BLKREFS
331
F3
102
}
 70
     0
280
     1
281
     0
  0
BLOCK_RECORD
  5
FE
330
1
100
AcDbSymbolTableRecord
100
AcDbBlockTableRecord
  2
Block_5
340
0
102
{BLKREFS
331
FF
102
}
 70
     0
280
     1
281
     0
  0
BLOCK_RECORD
  5
105
330
1
100
AcDbSymbolTableRecord
100
AcDbBlockTableRecord
  2
Block_6
340
0
102
{BLKREFS
331
106
102
}
 70
     0
280
     1
281
     0
  0
BLOCK_RECORD
  5
15E
330
1
100
AcDbSymbolTableRecord
100
AcDbBlockTableRecord
  2
Block_7
340
0
102
{BLKREFS
331
15F
102
}
 70
     0
280
     1
281
     0
  0
BLOCK_RECORD
  5
166
330
1
100
AcDbSymbolTableRecord
100
AcDbBlockTableRecord
  2
Block_8
340
0
102
{BLKREFS
331
167
102
}
 70
     0
280
     1
281
     0
  0
BLOCK_RECORD
  5
174
330
1
100
AcDbSymbolTableRecord
100
AcDbBlockTableRecord
  2
Block_9
340
0
102
{BLKREFS
331
175
102
}
 70
     0
280
     1
281
     0
  0
BLOCK_RECORD
  5
17D
330
1
100
AcDbSymbolTableRecord
100
AcDbBlockTableRecord
  2
Block_10
340
0
102
{BLKREFS
331
17E
102
}
 70
     0
280
     1
281
     0
  0
BLOCK_RECORD
  5
195
330
1
100
AcDbSymbolTableRecord
100
AcDbBlockTableRecord
  2
Block_11
340
0
102
{BLKREFS
331
196
102
}
 70
     0
280
     1
281
     0
  0
BLOCK_RECORD
  5
19E
330
1
100
AcDbSymbolTableRecord
100
AcDbBlockTableRecord
  2
Block_12
340
0
102
{BLKREFS
331
19F
102
}
 70
     0
280
     1
281
     0
  0
BLOCK_RECORD
  5
1BD
330
1
100
AcDbSymbolTableRecord
100
AcDbBlockTableRecord
  2
Block_13
340
0
102
{BLKREFS
331
1BE
102
}
 70
     0
280
     1
281
     0
  0
BLOCK_RECORD
  5
1C8
330
1
100
AcDbSymbolTableRecord
100
AcDbBlockTableRecord
  2
Block_14
340
0
102
{BLKREFS
331
1C9
102
}
 70
     0
280
     1
281
     0
  0
BLOCK_RECORD
  5
1D4
330
1
100
AcDbSymbolTableRecord
100
AcDbBlockTableRecord
  2
Block_15
340
0
102
{BLKREFS
331
1D5
102
}
 70
     0
280
     1
281
     0
  0
BLOCK_RECORD
  5
1DE
330
1
100
AcDbSymbolTableRecord
100
AcDbBlockTableRecord
  2
Block_16
340
0
102
{BLKREFS
331
1DF
102
}
 70
     0
280
     1
281
     0
  0
BLOCK_RECORD
  5
29A
330
1
100
AcDbSymbolTableRecord
100
AcDbBlockTableRecord
  2
Block_17
340
0
102
{BLKREFS
331
29B
102
}
 70
     0
280
     1
281
     0
  0
BLOCK_RECORD
  5
2A2
330
1
100
AcDbSymbolTableRecord
100
AcDbBlockTableRecord
  2
Block_18
340
0
102
{BLKREFS
331
2A3
102
}
 70
     0
280
     1
281
     0
  0
BLOCK_RECORD
  5
2A9
330
1
100
AcDbSymbolTableRecord
100
AcDbBlockTableRecord
  2
Block_19
340
0
102
{BLKREFS
331
2AA
102
}
 70
     0
280
     1
281
     0
  0
BLOCK_RECORD
  5
2AF
330
1
100
AcDbSymbolTableRecord
100
AcDbBlockTableRecord
  2
Block_20
340
0
102
{BLKREFS
331
2B0
102
}
 70
     0
280
     1
281
     0
  0
BLOCK_RECORD
  5
2B7
330
1
100
AcDbSymbolTableRecord
100
AcDbBlockTableRecord
  2
Block_21
340
0
102
{BLKREFS
331
2B8
102
}
 70
     0
280
     1
281
     0
  0
BLOCK_RECORD
  5
2BF
330
1
100
AcDbSymbolTableRecord
100
AcDbBlockTableRecord
  2
Block_22
340
0
102
{BLKREFS
331
2C0
102
}
 70
     0
280
     1
281
     0
  0
BLOCK_RECORD
  5
2C7
330
1
100
AcDbSymbolTableRecord
100
AcDbBlockTableRecord
  2
Block_23
340
0
102
{BLKREFS
331
2C8
102
}
 70
     0
280
     1
281
     0
  0
BLOCK_RECORD
  5
2CF
330
1
100
AcDbSymbolTableRecord
100
AcDbBlockTableRecord
  2
Block_24
340
0
102
{BLKREFS
331
2D0
102
}
 70
     0
280
     1
281
     0
  0
BLOCK_RECORD
  5
2D7
330
1
100
AcDbSymbolTableRecord
100
AcDbBlockTableRecord
  2
Block_25
340
0
102
{BLKREFS
331
2D8
102
}
 70
     0
280
     1
281
     0
  0
BLOCK_RECORD
  5
2DF
330
1
100
AcDbSymbolTableRecord
100
AcDbBlockTableRecord
  2
Block_26
340
0
102
{BLKREFS
331
2E0
102
}
 70
     0
280
     1
281
     0
  0
BLOCK_RECORD
  5
2E7
330
1
100
AcDbSymbolTableRecord
100
AcDbBlockTableRecord
  2
Block_27
340
0
102
{BLKREFS
331
2E8
102
}
 70
     0
280
     1
281
     0
  0
BLOCK_RECORD
  5
2EE
330
1
100
AcDbSymbolTableRecord
100
AcDbBlockTableRecord
  2
Block_28
340
0
102
{BLKREFS
331
2EF
102
}
 70
     0
280
     1
281
     0
  0
BLOCK_RECORD
  5
2FD
330
1
100
AcDbSymbolTableRecord
100
AcDbBlockTableRecord
  2
Block_29
340
0
102
{BLKREFS
331
2FE
102
}
 70
     0
280
     1
281
     0
  0
BLOCK_RECORD
  5
305
330
1
100
AcDbSymbolTableRecord
100
AcDbBlockTableRecord
  2
Block_30
340
0
102
{BLKREFS
331
306
102
}
 70
     0
280
     1
281
     0
  0
BLOCK_RECORD
  5
30F
330
1
100
AcDbSymbolTableRecord
100
AcDbBlockTableRecord
  2
Block_31
340
0
102
{BLKREFS
331
310
102
}
 70
     0
280
     1
281
     0
  0
BLOCK_RECORD
  5
317
330
1
100
AcDbSymbolTableRecord
100
AcDbBlockTableRecord
  2
Block_32
340
0
102
{BLKREFS
331
318
102
}
 70
     0
280
     1
281
     0
  0
BLOCK_RECORD
  5
31F
330
1
100
AcDbSymbolTableRecord
100
AcDbBlockTableRecord
  2
Block_33
340
0
102
{BLKREFS
331
320
102
}
 70
     0
280
     1
281
     0
  0
BLOCK_RECORD
  5
327
330
1
100
AcDbSymbolTableRecord
100
AcDbBlockTableRecord
  2
Block_34
340
0
102
{BLKREFS
331
328
102
}
 70
     0
280
     1
281
     0
  0
BLOCK_RECORD
  5
331
330
1
100
AcDbSymbolTableRecord
100
AcDbBlockTableRecord
  2
Block_35
340
0
102
{BLKREFS
331
332
102
}
 70
     0
280
     1
281
     0
  0
BLOCK_RECORD
  5
33D
330
1
100
AcDbSymbolTableRecord
100
AcDbBlockTableRecord
  2
Block_36
340
0
102
{BLKREFS
331
33E
102
}
 70
     0
280
     1
281
     0
  0
BLOCK_RECORD
  5
345
330
1
100
AcDbSymbolTableRecord
100
AcDbBlockTableRecord
  2
Block_37
340
0
102
{BLKREFS
331
346
102
}
 70
     0
280
     1
281
     0
  0
BLOCK_RECORD
  5
34D
330
1
100
AcDbSymbolTableRecord
100
AcDbBlockTableRecord
  2
Block_38
340
0
102
{BLKREFS
331
34E
102
}
 70
     0
280
     1
281
     0
  0
BLOCK_RECORD
  5
359
330
1
100
AcDbSymbolTableRecord
100
AcDbBlockTableRecord
  2
Block_39
340
0
102
{BLKREFS
331
35A
102
}
 70
     0
280
     1
281
     0
  0
BLOCK_RECORD
  5
363
330
1
100
AcDbSymbolTableRecord
100
AcDbBlockTableRecord
  2
Block_40
340
0
102
{BLKREFS
331
364
102
}
 70
     0
280
     1
281
     0
  0
BLOCK_RECORD
  5
36B
330
1
100
AcDbSymbolTableRecord
100
AcDbBlockTableRecord
  2
Block_41
340
0
102
{BLKREFS
331
36C
102
}
 70
     0
280
     1
281
     0
  0
BLOCK_RECORD
  5
373
330
1
100
AcDbSymbolTableRecord
100
AcDbBlockTableRecord
  2
Block_42
340
0
102
{BLKREFS
331
374
102
}
 70
     0
280
     1
281
     0
  0
BLOCK_RECORD
  5
37B
330
1
100
AcDbSymbolTableRecord
100
AcDbBlockTableRecord
  2
Block_43
340
0
102
{BLKREFS
331
37C
102
}
 70
     0
280
     1
281
     0
  0
BLOCK_RECORD
  5
382
330
1
100
AcDbSymbolTableRecord
100
AcDbBlockTableRecord
  2
Block_44
340
0
102
{BLKREFS
331
383
102
}
 70
     0
280
     1
281
     0
  0
BLOCK_RECORD
  5
389
330
1
100
AcDbSymbolTableRecord
100
AcDbBlockTableRecord
  2
Block_45
340
0
102
{BLKREFS
331
38A
102
}
 70
     0
280
     1
281
     0
  0
BLOCK_RECORD
  5
390
330
1
100
AcDbSymbolTableRecord
100
AcDbBlockTableRecord
  2
Block_46
340
0
102
{BLKREFS
331
391
102
}
 70
     0
280
     1
281
     0
  0
BLOCK_RECORD
  5
39A
330
1
100
AcDbSymbolTableRecord
100
AcDbBlockTableRecord
  2
Block_47
340
0
102
{BLKREFS
331
39B
102
}
 70
     0
280
     1
281
     0
  0
ENDTAB
  0
ENDSEC
  0
SECTION
  2
BLOCKS
  0
BLOCK
  5
71
330
70
100
AcDbEntity
  8
0
100
AcDbBlockBegin
  2
*Model_Space
 70
     0
 10
0.0
 20
0.0
 30
0.0
  3
*Model_Space
  1

  0
ENDBLK
  5
72
330
70
100
AcDbEntity
  8
0
100
AcDbBlockEnd
  0
BLOCK
  5
6D
330
6C
100
AcDbEntity
 67
     1
  8
0
100
AcDbBlockBegin
  2
*Paper_Space
 70
     0
 10
0.0
 20
0.0
 30
0.0
  3
*Paper_Space
  1

  0
ENDBLK
  5
6E
330
6C
100
AcDbEntity
 67
     1
  8
0
100
AcDbBlockEnd
  0
BLOCK
  5
75
330
74
100
AcDbEntity
 67
     1
  8
0
100
AcDbBlockBegin
  2
*Paper_Space0
 70
     0
 10
0.0
 20
0.0
 30
0.0
  3
*Paper_Space0
  1

  0
ENDBLK
  5
76
330
74
100
AcDbEntity
 67
     1
  8
0
100
AcDbBlockEnd
  0
BLOCK
  5
9E
330
9C
100
AcDbEntity
  8
0
100
AcDbBlockBegin
  2
Block_0
 70
     0
 10
0.0
 20
0.0
 30
0.0
  3
Block_0
  1

  0
MTEXT
  5
A0
330
9C
100
AcDbEntity
  8
moji
100
AcDbMText
 10
19.6713337319257
 20
26.34303567015849
 30
0.0
 40
0.2
 41
0.0
 46
0.0
 71
     7
 72
     1
  1
\C18;\c0;\FKozGoPr6N-Regular|b0|i0|c128;\H1.685837;\W1.000000;※
 73
     1
 44
1.0
  0
MTEXT
  5
A1
330
9C
100
AcDbEntity
  8
moji
100
AcDbMText
 10
21.43766917646432
 20
26.34303567015849
 30
0.0
 40
0.2
 41
0.0
 46
0.0
 71
     7
 72
     1
  1
\C18;\c0;\FArial Unicode MS|b0|i0|c129;\H1.685837;\W1.000000;ご注意
 73
     1
 44
1.0
  0
ENDBLK
  5
9F
330
9C
100
AcDbEntity
  8
0
100
AcDbBlockEnd
  0
BLOCK
  5
D5
330
D3
100
AcDbEntity
  8
0
100
AcDbBlockBegin
  2
Block_1
 70
     0
 10
0.0
 20
0.0
 30
0.0
  3
Block_1
  1

  0
MTEXT
  5
D7
330
D3
100
AcDbEntity
  8
moji
100
AcDbMText
 10
59.58176369766967
 20
145.4559686085199
 30
0.0
 40
0.2
 41
0.0
 46
0.0
 71
     7
 72
     1
  1
\C18;\c0;\FKozGoPr6N-Regular|b0|i0|c128;\H1.766858;\W1.000000;ABS
 73
     1
 44
1.0
  0
MTEXT
  5
D8
330
D3
100
AcDbEntity
  8
moji
100
AcDbMText
 10
64.88233916461981
 20
145.4559686085199
 30
0.0
 40
0.2
 41
0.0
 46
0.0
 71
     7
 72
     1
  1
\C18;\c0;\FArial Unicode MS|b0|i0|c129;\H1.766858;\W1.000000;樹脂
 73
     1
 44
1.0
  0
ENDBLK
  5
D6
330
D3
100
AcDbEntity
  8
0
100
AcDbBlockEnd
  0
BLOCK
  5
E2
330
E0
100
AcDbEntity
  8
0
100
AcDbBlockBegin
  2
Block_2
 70
     0
 10
0.0
 20
0.0
 30
0.0
  3
Block_2
  1

  0
MTEXT
  5
E4
330
E0
100
AcDbEntity
  8
moji
100
AcDbMText
 10
49.27508768333281
 20
109.512727582892
 30
0.0
 40
0.2
 41
0.0
 46
0.0
 71
     7
 72
     1
  1
\C18;\c0;\FArial Unicode MS|b0|i0|c129;\H1.766858;\W1.000000;単相・
 73
     1
 44
1.0
  0
MTEXT
  5
E5
330
E0
100
AcDbEntity
  8
moji
100
AcDbMText
 10
56.6799866852522
 20
109.512727582892
 30
0.0
 40
0.2
 41
0.0
 46
0.0
 71
     7
 72
     1
  1
\C18;\c0;\FKozGoPr6N-Regular|b0|i0|c128;\H1.766858;\W1.000000;230V 50Hz/60Hz
 73
     1
 44
1.0
  0
ENDBLK
  5
E3
330
E0
100
AcDbEntity
  8
0
100
AcDbBlockEnd
  0
BLOCK
  5
E8
330
E6
100
AcDbEntity
  8
0
100
AcDbBlockBegin
  2
Block_3
 70
     0
 10
0.0
 20
0.0
 30
0.0
  3
Block_3
  1

  0
MTEXT
  5
EA
330
E6
100
AcDbEntity
  8
moji
100
AcDbMText
 10
46.42089605230537
 20
137.49975743565
 30
0.0
 40
0.2
 41
0.0
 46
0.0
 71
     7
 72
     1
  1
\C18;\c0;\FKozGoPr6N-Regular|b0|i0|c128;\H1.766858;\W1.000000;840 
 73
     1
 44
1.0
  0
MTEXT
  5
EB
330
E6
100
AcDbEntity
  8
moji
100
AcDbMText
 10
53.19385150003433
 20
137.49975743565
 30
0.0
 40
0.2
 41
0.0
 46
0.0
 71
     7
 72
     1
  1
\C18;\c0;\FArial Unicode MS|b0|i0|c129;\H1.766858;\W1.000000;× 
 73
     1
 44
1.0
  0
MTEXT
  5
EC
330
E6
100
AcDbEntity
  8
moji
100
AcDbMText
 10
55.3210741540571
 20
137.49975743565
 30
0.0
 40
0.2
 41
0.0
 46
0.0
 71
     7
 72
     1
  1
\C18;\c0;\FKozGoPr6N-Regular|b0|i0|c128;\H1.766858;\W1.000000;795(735) 
 73
     1
 44
1.0
  0
MTEXT
  5
ED
330
E6
100
AcDbEntity
  8
moji
100
AcDbMText
 10
70.04489549369212
 20
137.49975743565
 30
0.0
 40
0.2
 41
0.0
 46
0.0
 71
     7
 72
     1
  1
\C18;\c0;\FArial Unicode MS|b0|i0|c129;\H1.766858;\W1.000000;× 
 73
     1
 44
1.0
  0
MTEXT
  5
EE
330
E6
100
AcDbEntity
  8
moji
100
AcDbMText
 10
72.17211276475319
 20
137.49975743565
 30
0.0
 40
0.2
 41
0.0
 46
0.0
 71
     7
 72
     1
  1
\C18;\c0;\FKozGoPr6N-Regular|b0|i0|c128;\H1.766858;\W1.000000;1775
 73
     1
 44
1.0
  0
ENDBLK
  5
E9
330
E6
100
AcDbEntity
  8
0
100
AcDbBlockEnd
  0
BLOCK
  5
F4
330
F2
100
AcDbEntity
  8
0
100
AcDbBlockBegin
  2
Block_4
 70
     0
 10
0.0
 20
0.0
 30
0.0
  3
Block_4
  1

  0
MTEXT
  5
F6
330
F2
100
AcDbEntity
  8
moji
100
AcDbMText
 10
93.83261233209198
 20
69.42830952921953
 30
0.0
 40
0.2
 41
0.0
 46
0.0
 71
     7
 72
     1
  1
\C18;\c0;\FArial Unicode MS|b0|i0|c129;\H1.540512;\W1.011240;※卜ランス
 73
     1
 44
1.0
  0
MTEXT
  5
F7
330
F2
100
AcDbEntity
  8
moji
100
AcDbMText
 10
104.7140217837173
 20
69.42830952921953
 30
0.0
 40
0.2
 41
0.0
 46
0.0
 71
     7
 72
     1
  1
\C18;\c0;\FKozGoPr6N-Regular|b0|i0|c128;\H1.540512;\W1.011240;(TK0054)
 73
     1
 44
1.0
  0
MTEXT
  5
F8
330
F2
100
AcDbEntity
  8
moji
100
AcDbMText
 10
115.6188148209488
 20
69.42830952921953
 30
0.0
 40
0.2
 41
0.0
 46
0.0
 71
     7
 72
     1
  1
\C18;\c0;\FArial Unicode MS|b0|i0|c129;\H1.540512;\W1.011240;の外形寸法：幅
 73
     1
 44
1.0
  0
MTEXT
  5
F9
330
F2
100
AcDbEntity
  8
moji
100
AcDbMText
 10
130.852790206409
 20
69.42830952921953
 30
0.0
 40
0.2
 41
0.0
 46
0.0
 71
     7
 72
     1
  1
\C18;\c0;\FKozGoPr6N-Regular|b0|i0|c128;\H1.540512;\W1.011240;125mmx
 73
     1
 44
1.0
  0
MTEXT
  5
FA
330
F2
100
AcDbEntity
  8
moji
100
AcDbMText
 10
139.6804813459664
 20
69.42830952921953
 30
0.0
 40
0.2
 41
0.0
 46
0.0
 71
     7
 72
     1
  1
\C18;\c0;\FArial Unicode MS|b0|i0|c129;\H1.540512;\W1.011240;奥行
 73
     1
 44
1.0
  0
MTEXT
  5
FB
330
F2
100
AcDbEntity
  8
moji
100
AcDbMText
 10
144.0330472798012
 20
69.42830952921953
 30
0.0
 40
0.2
 41
0.0
 46
0.0
 71
     7
 72
     1
  1
\C18;\c0;\FKozGoPr6N-Regular|b0|i0|c128;\H1.540512;\W1.011240;140mmx
 73
     1
 44
1.0
  0
MTEXT
  5
FC
330
F2
100
AcDbEntity
  8
moji
100
AcDbMText
 10
152.6010858790046
 20
69.42830952921953
 30
0.0
 40
0.2
 41
0.0
 46
0.0
 71
     7
 72
     1
  1
\C18;\c0;\FArial Unicode MS|b0|i0|c129;\H1.540512;\W1.011240;高さ
 73
     1
 44
1.0
  0
MTEXT
  5
FD
330
F2
100
AcDbEntity
  8
moji
100
AcDbMText
 10
156.9536518128395
 20
69.42830952921953
 30
0.0
 40
0.2
 41
0.0
 46
0.0
 71
     7
 72
     1
  1
\C18;\c0;\FKozGoPr6N-Regular|b0|i0|c128;\H1.540512;\W1.011240;140mm
 73
     1
 44
1.0
  0
ENDBLK
  5
F5
330
F2
100
AcDbEntity
  8
0
100
AcDbBlockEnd
  0
BLOCK
  5
100
330
FE
100
AcDbEntity
  8
0
100
AcDbBlockBegin
  2
Block_5
 70
     0
 10
0.0
 20
0.0
 30
0.0
  3
Block_5
  1

  0
MTEXT
  5
102
330
FE
100
AcDbEntity
  8
moji
100
AcDbMText
 10
93.83261233209198
 20
66.26935613882817
 30
0.0
 40
0.2
 41
0.0
 46
0.0
 71
     7
 72
     1
  1
\C18;\c0;\FArial Unicode MS|b0|i0|c129;\H1.540512;\W1.011240;※必要最小放熱スペース
 73
     1
 44
1.0
  0
MTEXT
  5
103
330
FE
100
AcDbEntity
  8
moji
100
AcDbMText
 10
117.7717195852218
 20
66.26935613882817
 30
0.0
 40
0.2
 41
0.0
 46
0.0
 71
     7
 72
     1
  1
\C18;\c0;\FKozGoPr6N-Regular|b0|i0|c128;\H1.540512;\W1.011240;(
 73
     1
 44
1.0
  0
MTEXT
  5
104
330
FE
100
AcDbEntity
  8
moji
100
AcDbMText
 10
118.8102759170205
 20
66.26935613882817
 30
0.0
 40
0.2
 41
0.0
 46
0.0
 71
     7
 72
     1
  1
\C18;\c0;\FArial Unicode MS|b0|i0|c129;\H1.540512;\W1.011240;壁面より）
 73
     1
 44
1.0
  0
ENDBLK
  5
101
330
FE
100
AcDbEntity
  8
0
100
AcDbBlockEnd
  0
BLOCK
  5
107
330
105
100
AcDbEntity
  8
0
100
AcDbBlockBegin
  2
Block_6
 70
     0
 10
0.0
 20
0.0
 30
0.0
  3
Block_6
  1

  0
MTEXT
  5
109
330
105
100
AcDbEntity
  8
moji
100
AcDbMText
 10
94.02240479555906
 20
62.96964906601758
 30
0.0
 40
0.2
 41
0.0
 46
0.0
 71
     7
 72
     1
  1
\C18;\c0;\FArial Unicode MS|b0|i0|c129;\H1.540512;\W1.011240;　上面
 73
     1
 44
1.0
  0
MTEXT
  5
10A
330
105
100
AcDbEntity
  8
moji
100
AcDbMText
 10
100.5512483133496
 20
62.96964906601758
 30
0.0
 40
0.2
 41
0.0
 46
0.0
 71
     7
 72
     1
  1
\C18;\c0;\FKozGoPr6N-Regular|b0|i0|c128;\H1.540512;\W1.011240;25mm
 73
     1
 44
1.0
  0
MTEXT
  5
10B
330
105
100
AcDbEntity
  8
moji
100
AcDbMText
 10
106.7825540063718
 20
62.96964906601758
 30
0.0
 40
0.2
 41
0.0
 46
0.0
 71
     7
 72
     1
  1
\C18;\c0;\FArial Unicode MS|b0|i0|c129;\H1.540512;\W1.011240;（ヒンジより）／両側面
 73
     1
 44
1.0
  0
MTEXT
  5
10C
330
105
100
AcDbEntity
  8
moji
100
AcDbMText
 10
130.7216612595016
 20
62.96964906601758
 30
0.0
 40
0.2
 41
0.0
 46
0.0
 71
     7
 72
     1
  1
\C18;\c0;\FKozGoPr6N-Regular|b0|i0|c128;\H1.540512;\W1.011240;4mm
 73
     1
 44
1.0
  0
MTEXT
  5
10D
330
105
100
AcDbEntity
  8
moji
100
AcDbMText
 10
135.3951378377875
 20
62.96964906601758
 30
0.0
 40
0.2
 41
0.0
 46
0.0
 71
     7
 72
     1
  1
\C18;\c0;\FArial Unicode MS|b0|i0|c129;\H1.540512;\W1.011240;／背面
 73
     1
 44
1.0
  0
MTEXT
  5
10E
330
105
100
AcDbEntity
  8
moji
100
AcDbMText
 10
141.9239921215014
 20
62.96964906601758
 30
0.0
 40
0.2
 41
0.0
 46
0.0
 71
     7
 72
     1
  1
\C18;\c0;\FKozGoPr6N-Regular|b0|i0|c128;\H1.540512;\W1.011240;30mm-
 73
     1
 44
1.0
  0
MTEXT
  5
10F
330
105
100
AcDbEntity
  8
moji
100
AcDbMText
 10
149.4534851548295
 20
62.96964906601758
 30
0.0
 40
0.2
 41
0.0
 46
0.0
 71
     7
 72
     1
  1
\C18;\c0;\FArial Unicode MS|b0|i0|c129;\H1.540512;\W1.011240;（側面か背面に給水バルブスペース必要）
 73
     1
 44
1.0
  0
ENDBLK
  5
108
330
105
100
AcDbEntity
  8
0
100
AcDbBlockEnd
  0
BLOCK
  5
160
330
15E
100
AcDbEntity
  8
0
100
AcDbBlockBegin
  2
Block_7
 70
     0
 10
0.0
 20
0.0
 30
0.0
  3
Block_7
  1

  0
MTEXT
  5
162
330
15E
100
AcDbEntity
  8
moji
100
AcDbMText
 10
109.0704203862795
 20
31.02411837332036
 30
0.0
 40
0.2
 41
0.0
 46
0.0
 71
     7
 72
     1
  1
\C18;\c0;\FKozGoPr6N-Regular|b0|i0|c128;\H2.240050;\W0.900000;24
 73
     1
 44
1.0
  0
MTEXT
  5
163
330
15E
100
AcDbEntity
  8
moji
100
AcDbMText
 10
113.1025063125989
 20
31.02411837332036
 30
0.0
 40
0.2
 41
0.0
 46
0.0
 71
     7
 72
     1
  1
\C18;\c0;\FArial Unicode MS|b0|i0|c129;\H2.240050;\W0.900000;時間に出来る氷の平均量
 73
     1
 44
1.0
  0
ENDBLK
  5
161
330
15E
100
AcDbEntity
  8
0
100
AcDbBlockEnd
  0
BLOCK
  5
168
330
166
100
AcDbEntity
  8
0
100
AcDbBlockBegin
  2
Block_8
 70
     0
 10
0.0
 20
0.0
 30
0.0
  3
Block_8
  1

  0
MTEXT
  5
16A
330
166
100
AcDbEntity
  8
moji
100
AcDbMText
 10
149.1736357421934
 20
25.914420036619
 30
0.0
 40
0.2
 41
0.0
 46
0.0
 71
     7
 72
     1
  1
\C18;\c0;\FKozGoPr6N-Regular|b0|i0|c128;\H2.044196;\W1.000000;(
 73
     1
 44
1.0
  0
MTEXT
  5
16B
330
166
100
AcDbEntity
  8
moji
100
AcDbMText
 10
150.5364401546944
 20
25.914420036619
 30
0.0
 40
0.2
 41
0.0
 46
0.0
 71
     7
 72
     1
  1
\C18;\c0;\FArial Unicode MS|b0|i0|c129;\H2.044196;\W1.000000;分
 73
     1
 44
1.0
  0
MTEXT
  5
16C
330
166
100
AcDbEntity
  8
moji
100
AcDbMText
 10
153.3921766957285
 20
25.914420036619
 30
0.0
 40
0.2
 41
0.0
 46
0.0
 71
     7
 72
     1
  1
\C18;\c0;\FKozGoPr6N-Regular|b0|i0|c128;\H2.044196;\W1.000000;)
 73
     1
 44
1.0
  0
ENDBLK
  5
169
330
166
100
AcDbEntity
  8
0
100
AcDbBlockEnd
  0
BLOCK
  5
176
330
174
100
AcDbEntity
  8
0
100
AcDbBlockBegin
  2
Block_9
 70
     0
 10
0.0
 20
0.0
 30
0.0
  3
Block_9
  1

  0
MTEXT
  5
178
330
174
100
AcDbEntity
  8
moji
100
AcDbMText
 10
112.5309542056726
 20
21.03007804556781
 30
0.0
 40
0.2
 41
0.0
 46
0.0
 71
     7
 72
     1
  1
\C18;\c0;\FArial Unicode MS|b0|i0|c129;\H1.788680;\W1.000000;このアイスメーカーは、本体の温度が
 73
     1
 44
1.0
  0
MTEXT
  5
179
330
174
100
AcDbEntity
  8
moji
100
AcDbMText
 10
155.0102842155334
 20
21.03007804556781
 30
0.0
 40
0.2
 41
0.0
 46
0.0
 71
     7
 72
     1
  1
\C18;\c0;\FKozGoPr6N-Regular|b0|i0|c128;\H1.788680;\W1.000000;-10
 73
     1
 44
1.0
  0
MTEXT
  5
17A
330
174
100
AcDbEntity
  8
moji
100
AcDbMText
 10
159.4819858576176
 20
21.03007804556781
 30
0.0
 40
0.2
 41
0.0
 46
0.0
 71
     7
 72
     1
  1
\C18;\c0;\FArial Unicode MS|b0|i0|c129;\H1.788680;\W1.000000;℃以下
 73
     1
 44
1.0
  0
ENDBLK
  5
177
330
174
100
AcDbEntity
  8
0
100
AcDbBlockEnd
  0
BLOCK
  5
17F
330
17D
100
AcDbEntity
  8
0
100
AcDbBlockBegin
  2
Block_10
 70
     0
 10
0.0
 20
0.0
 30
0.0
  3
Block_10
  1

  0
MTEXT
  5
181
330
17D
100
AcDbEntity
  8
moji
100
AcDbMText
 10
205.0989581125165
 20
47.38826809864013
 30
0.0
 40
0.2
 41
0.0
 46
0.0
 71
     7
 72
     1
  1
\C18;\c0;\FArial Unicode MS|b0|i0|c129;\H2.044196;\W1.000000;電源コード
 73
     1
 44
1.0
  0
MTEXT
  5
182
330
17D
100
AcDbEntity
  8
moji
100
AcDbMText
 10
219.3776515836105
 20
47.38826809864013
 30
0.0
 40
0.2
 41
0.0
 46
0.0
 71
     7
 72
     1
  1
\C18;\c0;\FKozGoPr6N-Regular|b0|i0|c128;\H2.044196;\W1.000000;(
 73
     1
 44
1.0
  0
MTEXT
  5
183
330
17D
100
AcDbEntity
  8
moji
100
AcDbMText
 10
220.7404452301882
 20
47.38826809864013
 30
0.0
 40
0.2
 41
0.0
 46
0.0
 71
     7
 72
     1
  1
\C18;\c0;\FArial Unicode MS|b0|i0|c129;\H2.044196;\W1.000000;後面）
 73
     1
 44
1.0
  0
ENDBLK
  5
180
330
17D
100
AcDbEntity
  8
0
100
AcDbBlockEnd
  0
BLOCK
  5
197
330
195
100
AcDbEntity
  8
0
100
AcDbBlockBegin
  2
Block_11
 70
     0
 10
0.0
 20
0.0
 30
0.0
  3
Block_11
  1

  0
MTEXT
  5
199
330
195
100
AcDbEntity
  8
moji
100
AcDbMText
 10
205.0989581125165
 20
42.58590995995493
 30
0.0
 40
0.2
 41
0.0
 46
0.0
 71
     7
 72
     1
  1
\C18;\c0;\FArial Unicode MS|b0|i0|c129;\H2.042951;\W0.901327;アイスメーカー配管接続口
 73
     1
 44
1.0
  0
MTEXT
  5
19A
330
195
100
AcDbEntity
  8
moji
100
AcDbMText
 10
235.9675950202182
 20
42.58590995995493
 30
0.0
 40
0.2
 41
0.0
 46
0.0
 71
     7
 72
     1
  1
\C18;\c0;\FKozGoPr6N-Regular|b0|i0|c128;\H2.042951;\W0.901327;(
 73
     1
 44
1.0
  0
MTEXT
  5
19B
330
195
100
AcDbEntity
  8
moji
100
AcDbMText
 10
237.1951686689998
 20
42.58590995995493
 30
0.0
 40
0.2
 41
0.0
 46
0.0
 71
     7
 72
     1
  1
\C18;\c0;\FArial Unicode MS|b0|i0|c129;\H2.042951;\W0.901327;後面
 73
     1
 44
1.0
  0
MTEXT
  5
19C
330
195
100
AcDbEntity
  8
moji
100
AcDbMText
 10
242.3399450755912
 20
42.58590995995493
 30
0.0
 40
0.2
 41
0.0
 46
0.0
 71
     7
 72
     1
  1
\C18;\c0;\FKozGoPr6N-Regular|b0|i0|c128;\H2.042951;\W0.901327;)1/4"
 73
     1
 44
1.0
  0
MTEXT
  5
19D
330
195
100
AcDbEntity
  8
moji
100
AcDbMText
 10
249.7054085001279
 20
42.58590995995493
 30
0.0
 40
0.2
 41
0.0
 46
0.0
 71
     7
 72
     1
  1
\C18;\c0;\FArial Unicode MS|b0|i0|c129;\H2.042951;\W0.901327;オスネジ
 73
     1
 44
1.0
  0
ENDBLK
  5
198
330
195
100
AcDbEntity
  8
0
100
AcDbBlockEnd
  0
BLOCK
  5
1A0
330
19E
100
AcDbEntity
  8
0
100
AcDbBlockBegin
  2
Block_12
 70
     0
 10
0.0
 20
0.0
 30
0.0
  3
Block_12
  1

  0
MTEXT
  5
1A2
330
19E
100
AcDbEntity
  8
moji
100
AcDbMText
 10
205.0989581125165
 20
40.09378440702299
 30
0.0
 40
0.2
 41
0.0
 46
0.0
 71
     7
 72
     1
  1
\C18;\c0;\FKozGoPr6N-Regular|b0|i0|c128;\H1.482739;\W0.901327;[
 73
     1
 44
1.0
  0
MTEXT
  5
1A3
330
19E
100
AcDbEntity
  8
moji
100
AcDbMText
 10
205.9899028686957
 20
40.09378440702299
 30
0.0
 40
0.2
 41
0.0
 46
0.0
 71
     7
 72
     1
  1
\C18;\c0;\FArial Unicode MS|b0|i0|c129;\H1.482739;\W0.901327;接続後、配管留め金具に固定
 73
     1
 44
1.0
  0
MTEXT
  5
1A4
330
19E
100
AcDbEntity
  8
moji
100
AcDbMText
 10
230.2608374125954
 20
40.09378440702299
 30
0.0
 40
0.2
 41
0.0
 46
0.0
 71
     7
 72
     1
  1
\C18;\c0;\FKozGoPr6N-Regular|b0|i0|c128;\H1.482739;\W0.901327;]
 73
     1
 44
1.0
  0
ENDBLK
  5
1A1
330
19E
100
AcDbEntity
  8
0
100
AcDbBlockEnd
  0
BLOCK
  5
1BF
330
1BD
100
AcDbEntity
  8
0
100
AcDbBlockBegin
  2
Block_13
 70
     0
 10
0.0
 20
0.0
 30
0.0
  3
Block_13
  1

  0
MTEXT
  5
1C1
330
1BD
100
AcDbEntity
  8
moji
100
AcDbMText
 10
27.11510310024976
 20
91.63453375326866
 30
0.0
 40
0.2
 41
0.0
 46
0.0
 71
     7
 72
     1
  1
\C18;\c0;\FArial Unicode MS|b0|i0|c129;\H1.413487;\W1.000000;（
 73
     1
 44
1.0
  0
MTEXT
  5
1C2
330
1BD
100
AcDbEntity
  8
moji
100
AcDbMText
 10
29.08974301352699
 20
91.63453375326866
 30
0.0
 40
0.2
 41
0.0
 46
0.0
 71
     7
 72
     1
  1
\C18;\c0;\FKozGoPr6N-Regular|b0|i0|c128;\H1.413487;\W1.000000;kWh/
 73
     1
 44
1.0
  0
MTEXT
  5
1C3
330
1BD
100
AcDbEntity
  8
moji
100
AcDbMText
 10
35.21485094673557
 20
91.63453375326866
 30
0.0
 40
0.2
 41
0.0
 46
0.0
 71
     7
 72
     1
  1
\C18;\c0;\FArial Unicode MS|b0|i0|c129;\H1.413487;\W1.000000;年）
 73
     1
 44
1.0
  0
ENDBLK
  5
1C0
330
1BD
100
AcDbEntity
  8
0
100
AcDbBlockEnd
  0
BLOCK
  5
1CA
330
1C8
100
AcDbEntity
  8
0
100
AcDbBlockBegin
  2
Block_14
 70
     0
 10
0.0
 20
0.0
 30
0.0
  3
Block_14
  1

  0
MTEXT
  5
1CC
330
1C8
100
AcDbEntity
  8
moji
100
AcDbMText
 10
23.29287193563729
 20
178.5607954638504
 30
0.0
 40
0.2
 41
0.0
 46
0.0
 71
     7
 72
     1
  1
\C18;\c0;\FKozGoPr6N-Regular|b0|i0|c128;\H2.826973;\W0.800000;mabe
 73
     1
 44
1.0
  0
MTEXT
  5
1CD
330
1C8
100
AcDbEntity
  8
moji
100
AcDbMText
 10
32.33918668150396
 20
178.5607954638504
 30
0.0
 40
0.2
 41
0.0
 46
0.0
 71
     7
 72
     1
  1
\C18;\c0;\FArial Unicode MS|b0|i0|c129;\H2.826973;\W0.800000;製冷凍冷蔵庫仕様・外形寸法図
 73
     1
 44
1.0
  0
ENDBLK
  5
1CB
330
1C8
100
AcDbEntity
  8
0
100
AcDbBlockEnd
  0
BLOCK
  5
1D6
330
1D4
100
AcDbEntity
  8
0
100
AcDbBlockBegin
  2
Block_15
 70
     0
 10
0.0
 20
0.0
 30
0.0
  3
Block_15
  1

  0
MTEXT
  5
1D8
330
1D4
100
AcDbEntity
  8
moji
100
AcDbMText
 10
55.45505068770145
 20
64.1272172979466
 30
0.0
 40
0.2
 41
0.0
 46
0.0
 71
     7
 72
     1
  1
\C18;\c0;\FKozGoPr6N-Regular|b0|i0|c128;\H1.766858;\W1.000000;1/4
 73
     1
 44
1.0
  0
MTEXT
  5
1D9
330
1D4
100
AcDbEntity
  8
moji
100
AcDbMText
 10
60.16667631552474
 20
64.1272172979466
 30
0.0
 40
0.2
 41
0.0
 46
0.0
 71
     7
 72
     1
  1
\C18;\c0;\FArial Unicode MS|b0|i0|c129;\H1.766858;\W1.000000;インチ・オスネジ
 73
     1
 44
1.0
  0
ENDBLK
  5
1D7
330
1D4
100
AcDbEntity
  8
0
100
AcDbBlockEnd
  0
BLOCK
  5
1E0
330
1DE
100
AcDbEntity
  8
0
100
AcDbBlockBegin
  2
Block_16
 70
     0
 10
0.0
 20
0.0
 30
0.0
  3
Block_16
  1

  0
MTEXT
  5
1E2
330
1DE
100
AcDbEntity
  8
moji
100
AcDbMText
 10
19.74752686324752
 20
94.34938742080284
 30
0.0
 40
0.2
 41
0.0
 46
0.0
 71
     7
 72
     1
  1
\C18;\c0;\FArial Unicode MS|b0|i0|c129;\H1.413487;\W0.800000;年平均の消費電力量･
 73
     1
 44
1.0
  0
MTEXT
  5
1E3
330
1DE
100
AcDbEntity
  8
moji
100
AcDbMText
 10
34.75478266800808
 20
94.34938742080284
 30
0.0
 40
0.2
 41
0.0
 46
0.0
 71
     7
 72
     1
  1
\C18;\c0;\FKozGoPr6N-Regular|b0|i0|c128;\H1.413487;\W0.800000;50Hz/60Hz
 73
     1
 44
1.0
  0
ENDBLK
  5
1E1
330
1DE
100
AcDbEntity
  8
0
100
AcDbBlockEnd
  0
BLOCK
  5
29C
330
29A
100
AcDbEntity
  8
0
100
AcDbBlockBegin
  2
Block_17
 70
     0
 10
0.0
 20
0.0
 30
0.0
  3
Block_17
  1

  0
LINE
  5
29E
330
29A
100
AcDbEntity
  8
sunpo
 62
     8
420
  8421504
370
    15
100
AcDbLine
 10
106.7483262728432
 20
153.0127671750633
 30
0.0
 11
96.85391924202157
 21
153.0127671750633
 31
0.0
  0
LINE
  5
29F
330
29A
100
AcDbEntity
  8
sunpo
 62
     8
420
  8421504
370
    15
100
AcDbLine
 10
106.7483262728432
 20
131.1037230353854
 30
0.0
 11
96.85391924202157
 21
131.1037230353854
 31
0.0
  0
LINE
  5
2A0
330
29A
100
AcDbEntity
  8
sunpo
 62
     8
420
  8421504
370
    15
100
AcDbLine
 10
96.85391924202157
 20
152.3060238157188
 30
0.0
 11
96.85391924202157
 21
131.8104663947299
 31
0.0
  0
MTEXT
  5
2A1
330
29A
100
AcDbEntity
  8
sunpo
100
AcDbMText
 10
96.14717820201029
 20
139.8495171091345
 30
0.0
 40
0.2
 41
0.0
 46
0.0
 71
     7
 72
     1
  1
\C8;\c8421504;\FKozGoPr6N-Regular|b0|i0|c128;\H1.766858;\W1.000000;620
 11
0.0000000000000001
 21
1.0
 31
0.0
 73
     1
 44
1.0
  0
ENDBLK
  5
29D
330
29A
100
AcDbEntity
  8
0
100
AcDbBlockEnd
  0
BLOCK
  5
2A4
330
2A2
100
AcDbEntity
  8
0
100
AcDbBlockBegin
  2
Block_18
 70
     0
 10
0.0
 20
0.0
 30
0.0
  3
Block_18
  1

  0
LINE
  5
2A6
330
2A2
100
AcDbEntity
  8
sunpo
 62
     8
420
  8421504
370
    15
100
AcDbLine
 10
136.9616048848184
 20
153.7195105344078
 30
0.0
 11
136.9616048848184
 21
160.8529568682789
 31
0.0
  0
LINE
  5
2A7
330
2A2
100
AcDbEntity
  8
sunpo
 62
     8
420
  8421504
370
    15
100
AcDbLine
 10
107.4550696321874
 20
153.7195105344078
 30
0.0
 11
107.4550696321874
 21
160.8529568682789
 31
0.0
  0
LINE
  5
2A8
330
2A2
100
AcDbEntity
  8
sunpo
 62
     8
420
  8421504
370
    15
100
AcDbLine
 10
136.2548615254739
 20
160.8529568682789
 30
0.0
 11
108.161812991532
 21
160.8529568682789
 31
0.0
  0
INSERT
  5
2AA
330
2A2
100
AcDbEntity
  8
sunpo
100
AcDbBlockReference
  2
Block_19
 10
0.0
 20
0.0
 30
0.0
  0
ENDBLK
  5
2A5
330
2A2
100
AcDbEntity
  8
0
100
AcDbBlockEnd
  0
BLOCK
  5
2AB
330
2A9
100
AcDbEntity
  8
0
100
AcDbBlockBegin
  2
Block_19
 70
     0
 10
0.0
 20
0.0
 30
0.0
  3
Block_19
  1

  0
MTEXT
  5
2AD
330
2A9
100
AcDbEntity
  8
sunpo
100
AcDbMText
 10
114.5031421798974
 20
162.0948969965585
 30
0.0
 40
0.2
 41
0.0
 46
0.0
 71
     7
 72
     1
  1
\C8;\c8421504;\FKozGoPr6N-Regular|b0|i0|c128;\H1.766858;\W1.000000;835(
 73
     1
 44
1.0
  0
MTEXT
  5
2AE
330
2A9
100
AcDbEntity
  8
sunpo
100
AcDbMText
 10
120.9816227080629
 20
162.0948969965585
 30
0.0
 40
0.2
 41
0.0
 46
0.0
 71
     7
 72
     1
  1
\C8;\c8421504;\FArial Unicode MS|b0|i0|c129;\H1.766858;\W1.000000;本体幅）
 73
     1
 44
1.0
  0
ENDBLK
  5
2AC
330
2A9
100
AcDbEntity
  8
0
100
AcDbBlockEnd
  0
BLOCK
  5
2B1
330
2AF
100
AcDbEntity
  8
0
100
AcDbBlockBegin
  2
Block_20
 70
     0
 10
0.0
 20
0.0
 30
0.0
  3
Block_20
  1

  0
LINE
  5
2B3
330
2AF
100
AcDbEntity
  8
sunpo
 62
     8
420
  8421504
370
    15
100
AcDbLine
 10
106.7483262728432
 20
153.0127671750636
 30
0.0
 11
92.61345908595506
 21
153.0127671750636
 31
0.0
  0
LINE
  5
2B4
330
2AF
100
AcDbEntity
  8
sunpo
 62
     8
420
  8421504
370
    15
100
AcDbLine
 10
121.3249080593225
 20
127.0399487191549
 30
0.0
 11
92.61345908595506
 21
127.0399487191549
 31
0.0
  0
LINE
  5
2B5
330
2AF
100
AcDbEntity
  8
sunpo
 62
     8
420
  8421504
370
    15
100
AcDbLine
 10
92.61345908595506
 20
152.3060238157191
 30
0.0
 11
92.61345908595506
 21
127.7466920784995
 31
0.0
  0
MTEXT
  5
2B6
330
2AF
100
AcDbEntity
  8
sunpo
100
AcDbMText
 10
91.9067178284502
 20
137.670494214714
 30
0.0
 40
0.2
 41
0.0
 46
0.0
 71
     7
 72
     1
  1
\C8;\c8421504;\FKozGoPr6N-Regular|b0|i0|c128;\H1.766858;\W1.000000;735
 11
0.0000000000000001
 21
1.0
 31
0.0
 73
     1
 44
1.0
  0
ENDBLK
  5
2B2
330
2AF
100
AcDbEntity
  8
0
100
AcDbBlockEnd
  0
BLOCK
  5
2B9
330
2B7
100
AcDbEntity
  8
0
100
AcDbBlockBegin
  2
Block_21
 70
     0
 10
0.0
 20
0.0
 30
0.0
  3
Block_21
  1

  0
LINE
  5
2BB
330
2B7
100
AcDbEntity
  8
sunpo
 62
     8
420
  8421504
370
    15
100
AcDbLine
 10
137.6684961866447
 20
137.8890500272267
 30
0.0
 11
141.7455550904524
 21
137.8890500272267
 31
0.0
  0
LINE
  5
2BC
330
2B7
100
AcDbEntity
  8
sunpo
 62
     8
420
  8421504
370
    15
100
AcDbLine
 10
137.6404827539495
 20
129.4081297150934
 30
0.0
 11
141.7455550904524
 21
129.4081297150934
 31
0.0
  0
LINE
  5
2BD
330
2B7
100
AcDbEntity
  8
sunpo
 62
     8
420
  8421504
370
    15
100
AcDbLine
 10
141.7455550904524
 20
137.1823066678821
 30
0.0
 11
141.7455550904524
 21
130.1148730744379
 31
0.0
  0
MTEXT
  5
2BE
330
2B7
100
AcDbEntity
  8
sunpo
100
AcDbMText
 10
141.0388071343366
 20
131.4400390296396
 30
0.0
 40
0.2
 41
0.0
 46
0.0
 71
     7
 72
     1
  1
\C8;\c8421504;\FKozGoPr6N-Regular|b0|i0|c128;\H1.766858;\W1.000000;240
 11
0.0000000000000001
 21
1.0
 31
0.0
 73
     1
 44
1.0
  0
ENDBLK
  5
2BA
330
2B7
100
AcDbEntity
  8
0
100
AcDbBlockEnd
  0
BLOCK
  5
2C1
330
2BF
100
AcDbEntity
  8
0
100
AcDbBlockBegin
  2
Block_22
 70
     0
 10
0.0
 20
0.0
 30
0.0
  3
Block_22
  1

  0
LINE
  5
2C3
330
2BF
100
AcDbEntity
  8
sunpo
 62
     8
420
  8421504
370
    15
100
AcDbLine
 10
137.6683482441629
 20
153.0127671750633
 30
0.0
 11
155.7878482485106
 21
153.0127671750633
 31
0.0
  0
LINE
  5
2C4
330
2BF
100
AcDbEntity
  8
sunpo
 62
     8
420
  8421504
370
    15
100
AcDbLine
 10
122.7129979374532
 20
112.0216523330852
 30
0.0
 11
155.7878482485106
 21
112.0216523330852
 31
0.0
  0
LINE
  5
2C5
330
2BF
100
AcDbEntity
  8
sunpo
 62
     8
420
  8421504
370
    15
100
AcDbLine
 10
155.7878482485106
 20
152.3060238157188
 30
0.0
 11
155.7878482485106
 21
112.7283956924297
 31
0.0
  0
MTEXT
  5
2C6
330
2BF
100
AcDbEntity
  8
sunpo
100
AcDbMText
 10
155.0811024596021
 20
130.0141140082947
 30
0.0
 40
0.2
 41
0.0
 46
0.0
 71
     7
 72
     1
  1
\C8;\c8421504;\FKozGoPr6N-Regular|b0|i0|c128;\H1.766858;\W1.000000;1160
 11
0.0000000000000001
 21
1.0
 31
0.0
 73
     1
 44
1.0
  0
ENDBLK
  5
2C2
330
2BF
100
AcDbEntity
  8
0
100
AcDbBlockEnd
  0
BLOCK
  5
2C9
330
2C7
100
AcDbEntity
  8
0
100
AcDbBlockBegin
  2
Block_23
 70
     0
 10
0.0
 20
0.0
 30
0.0
  3
Block_23
  1

  0
LINE
  5
2CB
330
2C7
100
AcDbEntity
  8
sunpo
 62
     8
420
  8421504
370
    15
100
AcDbLine
 10
136.9617756810515
 20
110.7728792365227
 30
0.0
 11
136.9617756810515
 21
104.5496567903101
 31
0.0
  0
LINE
  5
2CC
330
2C7
100
AcDbEntity
  8
sunpo
 62
     8
420
  8421504
370
    15
100
AcDbLine
 10
150.3898995085958
 20
117.0521761612233
 30
0.0
 11
150.3898995085958
 21
104.5496567903101
 31
0.0
  0
LINE
  5
2CD
330
2C7
100
AcDbEntity
  8
sunpo
 62
     8
420
  8421504
370
    15
100
AcDbLine
 10
137.6685190403957
 20
104.5496567903101
 30
0.0
 11
149.6831561492516
 21
104.5496567903101
 31
0.0
  0
MTEXT
  5
2CE
330
2C7
100
AcDbEntity
  8
sunpo
100
AcDbMText
 10
141.4672693534678
 20
105.2563982382529
 30
0.0
 40
0.2
 41
0.0
 46
0.0
 71
     7
 72
     1
  1
\C8;\c8421504;\FKozGoPr6N-Regular|b0|i0|c128;\H1.766858;\W1.000000;380
 73
     1
 44
1.0
  0
ENDBLK
  5
2CA
330
2C7
100
AcDbEntity
  8
0
100
AcDbBlockEnd
  0
BLOCK
  5
2D1
330
2CF
100
AcDbEntity
  8
0
100
AcDbBlockBegin
  2
Block_24
 70
     0
 10
0.0
 20
0.0
 30
0.0
  3
Block_24
  1

  0
LINE
  5
2D3
330
2CF
100
AcDbEntity
  8
sunpo
 62
     8
420
  8421504
370
    15
100
AcDbLine
 10
106.7483262728432
 20
153.0127671750633
 30
0.0
 11
88.37299892988793
 21
153.0127671750633
 31
0.0
  0
LINE
  5
2D4
330
2CF
100
AcDbEntity
  8
sunpo
 62
     8
420
  8421504
370
    15
100
AcDbLine
 10
119.7170669168137
 20
124.9197186411214
 30
0.0
 11
88.37299892988793
 21
124.9197186411214
 31
0.0
  0
LINE
  5
2D5
330
2CF
100
AcDbEntity
  8
sunpo
 62
     8
420
  8421504
370
    15
100
AcDbLine
 10
88.37299892988793
 20
152.3060238157188
 30
0.0
 11
88.37299892988793
 21
125.6264620004659
 31
0.0
  0
MTEXT
  5
2D6
330
2CF
100
AcDbEntity
  8
sunpo
100
AcDbMText
 10
87.66625745489008
 20
136.6104383339026
 30
0.0
 40
0.2
 41
0.0
 46
0.0
 71
     7
 72
     1
  1
\C8;\c8421504;\FKozGoPr6N-Regular|b0|i0|c128;\H1.766858;\W1.000000;795
 11
0.0000000000000001
 21
1.0
 31
0.0
 73
     1
 44
1.0
  0
ENDBLK
  5
2D2
330
2CF
100
AcDbEntity
  8
0
100
AcDbBlockEnd
  0
BLOCK
  5
2D9
330
2D7
100
AcDbEntity
  8
0
100
AcDbBlockBegin
  2
Block_25
 70
     0
 10
0.0
 20
0.0
 30
0.0
  3
Block_25
  1

  0
LINE
  5
2DB
330
2D7
100
AcDbEntity
  8
sunpo
 62
     8
420
  8421504
370
    15
100
AcDbLine
 10
107.4548988359543
 20
110.7728792365227
 30
0.0
 11
107.4548988359543
 21
104.5496567903101
 31
0.0
  0
LINE
  5
2DC
330
2D7
100
AcDbEntity
  8
sunpo
 62
     8
420
  8421504
370
    15
100
AcDbLine
 10
94.02677500840974
 20
117.0521761612233
 30
0.0
 11
94.02677500840974
 21
104.5496567903101
 31
0.0
  0
LINE
  5
2DD
330
2D7
100
AcDbEntity
  8
sunpo
 62
     8
420
  8421504
370
    15
100
AcDbLine
 10
106.7481554766098
 20
104.5496567903101
 30
0.0
 11
94.73351836775426
 21
104.5496567903101
 31
0.0
  0
MTEXT
  5
2DE
330
2D7
100
AcDbEntity
  8
sunpo
100
AcDbMText
 10
98.53226087014233
 20
105.2563982382529
 30
0.0
 40
0.2
 41
0.0
 46
0.0
 71
     7
 72
     1
  1
\C8;\c8421504;\FKozGoPr6N-Regular|b0|i0|c128;\H1.766858;\W1.000000;380
 73
     1
 44
1.0
  0
ENDBLK
  5
2DA
330
2D7
100
AcDbEntity
  8
0
100
AcDbBlockEnd
  0
BLOCK
  5
2E1
330
2DF
100
AcDbEntity
  8
0
100
AcDbBlockBegin
  2
Block_26
 70
     0
 10
0.0
 20
0.0
 30
0.0
  3
Block_26
  1

  0
LINE
  5
2E3
330
2DF
100
AcDbEntity
  8
sunpo
 62
     8
420
  8421504
370
    15
100
AcDbLine
 10
209.0105192806163
 20
153.0127671750633
 30
0.0
 11
219.4942346183377
 21
153.0127671750633
 31
0.0
  0
LINE
  5
2E4
330
2DF
100
AcDbEntity
  8
sunpo
 62
     8
420
  8421504
370
    15
100
AcDbLine
 10
209.0003986315322
 20
90.81935237621115
 30
0.0
 11
219.4942346183377
 21
90.81935237621115
 31
0.0
  0
LINE
  5
2E5
330
2DF
100
AcDbEntity
  8
sunpo
 62
     8
420
  8421504
370
    15
100
AcDbLine
 10
219.4942346183377
 20
152.3060238157188
 30
0.0
 11
219.4942346183377
 21
91.52609573555599
 31
0.0
  0
MTEXT
  5
2E6
330
2DF
100
AcDbEntity
  8
sunpo
100
AcDbMText
 10
218.7874905781021
 20
119.1186550266436
 30
0.0
 40
0.2
 41
0.0
 46
0.0
 71
     7
 72
     1
  1
\C8;\c8421504;\FKozGoPr6N-Regular|b0|i0|c128;\H1.766858;\W1.000000;1760
 11
0.0000000000000001
 21
1.0
 31
0.0
 73
     1
 44
1.0
  0
ENDBLK
  5
2E2
330
2DF
100
AcDbEntity
  8
0
100
AcDbBlockEnd
  0
BLOCK
  5
2E9
330
2E7
100
AcDbEntity
  8
0
100
AcDbBlockBegin
  2
Block_27
 70
     0
 10
0.0
 20
0.0
 30
0.0
  3
Block_27
  1

  0
LINE
  5
2EB
330
2E7
100
AcDbEntity
  8
sunpo
 62
     8
420
  8421504
370
    15
100
AcDbLine
 10
208.3037759212721
 20
153.7195105344078
 30
0.0
 11
208.3037759212721
 21
165.0934170243457
 31
0.0
  0
LINE
  5
2EC
330
2E7
100
AcDbEntity
  8
sunpo
 62
     8
420
  8421504
370
    15
100
AcDbLine
 10
178.6205548288054
 20
153.7195105344078
 30
0.0
 11
178.6205548288054
 21
165.0934170243457
 31
0.0
  0
LINE
  5
2ED
330
2E7
100
AcDbEntity
  8
sunpo
 62
     8
420
  8421504
370
    15
100
AcDbLine
 10
207.5970325619279
 20
165.0934170243457
 30
0.0
 11
179.3272981881496
 21
165.0934170243457
 31
0.0
  0
INSERT
  5
2EF
330
2E7
100
AcDbEntity
  8
sunpo
100
AcDbBlockReference
  2
Block_28
 10
0.0
 20
0.0
 30
0.0
  0
ENDBLK
  5
2EA
330
2E7
100
AcDbEntity
  8
0
100
AcDbBlockEnd
  0
BLOCK
  5
2F0
330
2EE
100
AcDbEntity
  8
0
100
AcDbBlockBegin
  2
Block_28
 70
     0
 10
0.0
 20
0.0
 30
0.0
  3
Block_28
  1

  0
MTEXT
  5
2F2
330
2EE
100
AcDbEntity
  8
sunpo
100
AcDbMText
 10
185.9041995113581
 20
166.340374290419
 30
0.0
 40
0.2
 41
0.0
 46
0.0
 71
     7
 72
     1
  1
\C8;\c8421504;\FKozGoPr6N-Regular|b0|i0|c128;\H1.766858;\W1.000000;840(
 73
     1
 44
1.0
  0
MTEXT
  5
2F3
330
2EE
100
AcDbEntity
  8
sunpo
100
AcDbMText
 10
192.0882105029219
 20
166.340374290419
 30
0.0
 40
0.2
 41
0.0
 46
0.0
 71
     7
 72
     1
  1
\C8;\c8421504;\FArial Unicode MS|b0|i0|c129;\H1.766858;\W1.000000;ドア幅）
 73
     1
 44
1.0
  0
ENDBLK
  5
2F1
330
2EE
100
AcDbEntity
  8
0
100
AcDbBlockEnd
  0
BLOCK
  5
2FF
330
2FD
100
AcDbEntity
  8
0
100
AcDbBlockBegin
  2
Block_29
 70
     0
 10
0.0
 20
0.0
 30
0.0
  3
Block_29
  1

  0
LINE
  5
301
330
2FD
100
AcDbEntity
  8
sunpo
 62
     8
420
  8421504
370
    15
100
AcDbLine
 10
177.9138114694605
 20
115.2019974501351
 30
0.0
 11
171.1972194319432
 21
115.2019974501351
 31
0.0
  0
LINE
  5
302
330
2FD
100
AcDbEntity
  8
sunpo
 62
     8
420
  8421504
370
    15
100
AcDbLine
 10
177.9138114694605
 20
153.0127671750633
 30
0.0
 11
171.1972194319432
 21
153.0127671750633
 31
0.0
  0
LINE
  5
303
330
2FD
100
AcDbEntity
  8
sunpo
 62
     8
420
  8421504
370
    15
100
AcDbLine
 10
171.1972194319432
 20
115.9087408094796
 30
0.0
 11
171.1972194319432
 21
152.3060238157188
 31
0.0
  0
MTEXT
  5
304
330
2FD
100
AcDbEntity
  8
sunpo
100
AcDbMText
 10
170.4904762689551
 20
131.4572645070659
 30
0.0
 40
0.2
 41
0.0
 46
0.0
 71
     7
 72
     1
  1
\C8;\c8421504;\FKozGoPr6N-Regular|b0|i0|c128;\H1.766858;\W1.000000;1070
 11
0.0000000000000001
 21
1.0
 31
0.0
 73
     1
 44
1.0
  0
ENDBLK
  5
300
330
2FD
100
AcDbEntity
  8
0
100
AcDbBlockEnd
  0
BLOCK
  5
307
330
305
100
AcDbEntity
  8
0
100
AcDbBlockBegin
  2
Block_30
 70
     0
 10
0.0
 20
0.0
 30
0.0
  3
Block_30
  1

  0
LINE
  5
309
330
305
100
AcDbEntity
  8
sunpo
 62
     8
420
  8421504
370
    15
100
AcDbLine
 10
177.9138114694605
 20
115.2019974501351
 30
0.0
 11
171.1972194319438
 21
115.2019974501351
 31
0.0
  0
LINE
  5
30A
330
305
100
AcDbEntity
  8
sunpo
 62
     8
420
  8421504
370
    15
100
AcDbLine
 10
177.9138114694605
 20
114.3185682509545
 30
0.0
 11
171.1972194319438
 21
114.3185682509545
 31
0.0
  0
LINE
  5
30B
330
305
100
AcDbEntity
  8
sunpo
 62
     8
420
  8421504
370
    15
100
AcDbLine
 10
171.1972194319438
 20
115.9087408094796
 30
0.0
 11
171.1972194319438
 21
116.6154841688241
 31
0.0
  0
LINE
  5
30C
330
305
100
AcDbEntity
  8
sunpo
 62
     8
420
  8421504
370
    15
100
AcDbLine
 10
171.1972194319438
 20
113.6118248916103
 30
0.0
 11
171.1972194319438
 21
112.9050815322658
 31
0.0
  0
MTEXT
  5
30D
330
305
100
AcDbEntity
  8
sunpo
100
AcDbMText
 10
170.1371063654789
 20
113.2878309178583
 30
0.0
 40
0.2
 41
0.0
 46
0.0
 71
     7
 72
     1
  1
\C8;\c8421504;\FKozGoPr6N-Regular|b0|i0|c128;\H1.766858;\W1.000000;25
 11
0.0000000000000001
 21
1.0
 31
0.0
 73
     1
 44
1.0
  0
LINE
  5
30E
330
305
100
AcDbEntity
  8
sunpo
 62
     8
420
  8421504
370
    15
100
AcDbLine
 10
171.1972194319438
 20
115.2019974501351
 30
0.0
 11
171.1972194319438
 21
114.3185682509545
 31
0.0
  0
ENDBLK
  5
308
330
305
100
AcDbEntity
  8
0
100
AcDbBlockEnd
  0
BLOCK
  5
311
330
30F
100
AcDbEntity
  8
0
100
AcDbBlockBegin
  2
Block_31
 70
     0
 10
0.0
 20
0.0
 30
0.0
  3
Block_31
  1

  0
LINE
  5
313
330
30F
100
AcDbEntity
  8
sunpo
 62
     8
420
  8421504
370
    15
100
AcDbLine
 10
177.9036908203765
 20
90.82001387906217
 30
0.0
 11
171.1972194319438
 21
90.82001387906217
 31
0.0
  0
LINE
  5
314
330
30F
100
AcDbEntity
  8
sunpo
 62
     8
420
  8421504
370
    15
100
AcDbLine
 10
177.9138114694605
 20
114.3185682509545
 30
0.0
 11
171.1972194319438
 21
114.3185682509545
 31
0.0
  0
LINE
  5
315
330
30F
100
AcDbEntity
  8
sunpo
 62
     8
420
  8421504
370
    15
100
AcDbLine
 10
171.1972194319438
 20
91.52675723840637
 30
0.0
 11
171.1972194319438
 21
113.6118248916103
 31
0.0
  0
MTEXT
  5
316
330
30F
100
AcDbEntity
  8
sunpo
100
AcDbMText
 10
170.4904762689551
 20
100.2133490417869
 30
0.0
 40
0.2
 41
0.0
 46
0.0
 71
     7
 72
     1
  1
\C8;\c8421504;\FKozGoPr6N-Regular|b0|i0|c128;\H1.766858;\W1.000000;665
 11
0.0000000000000001
 21
1.0
 31
0.0
 73
     1
 44
1.0
  0
ENDBLK
  5
312
330
30F
100
AcDbEntity
  8
0
100
AcDbBlockEnd
  0
BLOCK
  5
319
330
317
100
AcDbEntity
  8
0
100
AcDbBlockBegin
  2
Block_32
 70
     0
 10
0.0
 20
0.0
 30
0.0
  3
Block_32
  1

  0
LINE
  5
31B
330
317
100
AcDbEntity
  8
sunpo
 62
     8
420
  8421504
370
    15
100
AcDbLine
 10
202.2863367177598
 20
101.2438169265419
 30
0.0
 11
199.3204212429587
 21
101.2438169265419
 31
0.0
  0
LINE
  5
31C
330
317
100
AcDbEntity
  8
sunpo
 62
     8
420
  8421504
370
    15
100
AcDbLine
 10
202.2863367177598
 20
90.81935237621115
 30
0.0
 11
199.3204212429587
 21
90.81935237621115
 31
0.0
  0
LINE
  5
31D
330
317
100
AcDbEntity
  8
sunpo
 62
     8
420
  8421504
370
    15
100
AcDbLine
 10
199.3204212429587
 20
100.5370735671977
 30
0.0
 11
199.3204212429587
 21
91.52609573555599
 31
0.0
  0
MTEXT
  5
31E
330
317
100
AcDbEntity
  8
sunpo
100
AcDbMText
 10
198.6136789037293
 20
93.67593584897685
 30
0.0
 40
0.2
 41
0.0
 46
0.0
 71
     7
 72
     1
  1
\C8;\c8421504;\FKozGoPr6N-Regular|b0|i0|c128;\H1.766858;\W1.000000;295
 11
0.0000000000000001
 21
1.0
 31
0.0
 73
     1
 44
1.0
  0
ENDBLK
  5
31A
330
317
100
AcDbEntity
  8
0
100
AcDbBlockEnd
  0
BLOCK
  5
321
330
31F
100
AcDbEntity
  8
0
100
AcDbBlockBegin
  2
Block_33
 70
     0
 10
0.0
 20
0.0
 30
0.0
  3
Block_33
  1

  0
LINE
  5
323
330
31F
100
AcDbEntity
  8
sunpo
 62
     8
420
  8421504
370
    15
100
AcDbLine
 10
202.9930800771046
 20
100.5370735671977
 30
0.0
 11
202.9930800771046
 21
97.64323804023664
 31
0.0
  0
LINE
  5
324
330
31F
100
AcDbEntity
  8
sunpo
 62
     8
420
  8421504
370
    15
100
AcDbLine
 10
208.2936552721874
 20
100.5370735671977
 30
0.0
 11
208.2936552721874
 21
97.64323804023664
 31
0.0
  0
LINE
  5
325
330
31F
100
AcDbEntity
  8
sunpo
 62
     8
420
  8421504
370
    15
100
AcDbLine
 10
203.6998234364488
 20
97.64323804023664
 30
0.0
 11
207.5869119128432
 21
97.64323804023664
 31
0.0
  0
MTEXT
  5
326
330
31F
100
AcDbEntity
  8
sunpo
100
AcDbMText
 10
203.7292742749683
 20
98.34998302120244
 30
0.0
 40
0.2
 41
0.0
 46
0.0
 71
     7
 72
     1
  1
\C8;\c8421504;\FKozGoPr6N-Regular|b0|i0|c128;\H1.766858;\W1.000000;150
 73
     1
 44
1.0
  0
ENDBLK
  5
322
330
31F
100
AcDbEntity
  8
0
100
AcDbBlockEnd
  0
BLOCK
  5
329
330
327
100
AcDbEntity
  8
0
100
AcDbBlockBegin
  2
Block_34
 70
     0
 10
0.0
 20
0.0
 30
0.0
  3
Block_34
  1

  0
LINE
  5
32B
330
327
100
AcDbEntity
  8
sunpo
 62
     8
420
  8421504
370
    15
100
AcDbLine
 10
205.8301741635668
 20
113.7878271544096
 30
0.0
 11
195.0799610868929
 21
113.7878271544096
 31
0.0
  0
LINE
  5
32C
330
327
100
AcDbEntity
  8
sunpo
 62
     8
420
  8421504
370
    15
100
AcDbLine
 10
199.3356831924971
 20
90.81935237621115
 30
0.0
 11
195.0799610868929
 21
90.81935237621115
 31
0.0
  0
LINE
  5
32D
330
327
100
AcDbEntity
  8
sunpo
 62
     8
420
  8421504
370
    15
100
AcDbLine
 10
195.0799610868929
 20
113.081083795065
 30
0.0
 11
195.0799610868929
 21
91.52609573555599
 31
0.0
  0
MTEXT
  5
32E
330
327
100
AcDbEntity
  8
sunpo
100
AcDbMText
 10
194.3732185301692
 20
100.0951822666429
 30
0.0
 40
0.2
 41
0.0
 46
0.0
 71
     7
 72
     1
  1
\C8;\c8421504;\FKozGoPr6N-Regular|b0|i0|c128;\H1.766858;\W1.000000;650
 11
0.0000000000000001
 21
1.0
 31
0.0
 73
     1
 44
1.0
  0
ENDBLK
  5
32A
330
327
100
AcDbEntity
  8
0
100
AcDbBlockEnd
  0
BLOCK
  5
333
330
331
100
AcDbEntity
  8
0
100
AcDbBlockBegin
  2
Block_35
 70
     0
 10
0.0
 20
0.0
 30
0.0
  3
Block_35
  1

  0
LINE
  5
335
330
331
100
AcDbEntity
  8
sunpo
 62
     8
420
  8421504
370
    15
100
AcDbLine
 10
206.5369175229109
 20
114.4945705137541
 30
0.0
 11
206.5369175229109
 21
119.9441315690484
 31
0.0
  0
LINE
  5
336
330
331
100
AcDbEntity
  8
sunpo
 62
     8
420
  8421504
370
    15
100
AcDbLine
 10
208.3037759212721
 20
115.0246280332625
 30
0.0
 11
208.3037759212721
 21
119.9441315690484
 31
0.0
  0
LINE
  5
337
330
331
100
AcDbEntity
  8
sunpo
 62
     8
420
  8421504
370
    15
100
AcDbLine
 10
205.8301741635668
 20
119.9441315690484
 30
0.0
 11
205.1234308042219
 21
119.9441315690484
 31
0.0
  0
LINE
  5
338
330
331
100
AcDbEntity
  8
sunpo
 62
     8
420
  8421504
370
    15
100
AcDbLine
 10
209.0105192806163
 20
119.9441315690484
 30
0.0
 11
209.7172626399611
 21
119.9441315690484
 31
0.0
  0
MTEXT
  5
339
330
331
100
AcDbEntity
  8
sunpo
100
AcDbMText
 10
206.0951935994636
 20
121.0042419131083
 30
0.0
 40
0.2
 41
0.0
 46
0.0
 71
     7
 72
     1
  1
\C8;\c8421504;\FKozGoPr6N-Regular|b0|i0|c128;\H1.766858;\W1.000000;50
 73
     1
 44
1.0
  0
LINE
  5
33A
330
331
100
AcDbEntity
  8
sunpo
 62
     8
420
  8421504
370
    15
100
AcDbLine
 10
206.5369175229109
 20
119.9441315690484
 30
0.0
 11
208.3037759212721
 21
119.9441315690484
 31
0.0
  0
ENDBLK
  5
334
330
331
100
AcDbEntity
  8
0
100
AcDbBlockEnd
  0
BLOCK
  5
33F
330
33D
100
AcDbEntity
  8
0
100
AcDbBlockBegin
  2
Block_36
 70
     0
 10
0.0
 20
0.0
 30
0.0
  3
Block_36
  1

  0
LINE
  5
341
330
33D
100
AcDbEntity
  8
sunpo
 62
     8
420
  8421504
370
    15
100
AcDbLine
 10
178.6205548288054
 20
153.7195105344078
 30
0.0
 11
178.6205548288054
 21
160.8529568682789
 31
0.0
  0
LINE
  5
342
330
33D
100
AcDbEntity
  8
sunpo
 62
     8
420
  8421504
370
    15
100
AcDbLine
 10
193.2854795352027
 20
153.7195105344078
 30
0.0
 11
193.2854795352027
 21
160.8529568682789
 31
0.0
  0
LINE
  5
343
330
33D
100
AcDbEntity
  8
sunpo
 62
     8
420
  8421504
370
    15
100
AcDbLine
 10
179.3272981881496
 20
160.8529568682789
 30
0.0
 11
192.5787361758578
 21
160.8529568682789
 31
0.0
  0
MTEXT
  5
344
330
33D
100
AcDbEntity
  8
sunpo
100
AcDbMText
 10
183.8916823881091
 20
161.5597014129249
 30
0.0
 40
0.2
 41
0.0
 46
0.0
 71
     7
 72
     1
  1
\C8;\c8421504;\FKozGoPr6N-Regular|b0|i0|c128;\H1.766858;\W1.000000;415
 73
     1
 44
1.0
  0
ENDBLK
  5
340
330
33D
100
AcDbEntity
  8
0
100
AcDbBlockEnd
  0
BLOCK
  5
347
330
345
100
AcDbEntity
  8
0
100
AcDbBlockBegin
  2
Block_37
 70
     0
 10
0.0
 20
0.0
 30
0.0
  3
Block_37
  1

  0
LINE
  5
349
330
345
100
AcDbEntity
  8
sunpo
 62
     8
420
  8421504
370
    15
100
AcDbLine
 10
208.3037759212721
 20
153.7195105344078
 30
0.0
 11
208.3037759212721
 21
160.8529568682789
 31
0.0
  0
LINE
  5
34A
330
345
100
AcDbEntity
  8
sunpo
 62
     8
420
  8421504
370
    15
100
AcDbLine
 10
193.6388512148748
 20
153.7195105344078
 30
0.0
 11
193.6388512148748
 21
160.8529568682789
 31
0.0
  0
LINE
  5
34B
330
345
100
AcDbEntity
  8
sunpo
 62
     8
420
  8421504
370
    15
100
AcDbLine
 10
207.5970325619279
 20
160.8529568682789
 30
0.0
 11
194.345594574219
 21
160.8529568682789
 31
0.0
  0
MTEXT
  5
34C
330
345
100
AcDbEntity
  8
sunpo
100
AcDbMText
 10
198.9099732643459
 20
161.5597014129249
 30
0.0
 40
0.2
 41
0.0
 46
0.0
 71
     7
 72
     1
  1
\C8;\c8421504;\FKozGoPr6N-Regular|b0|i0|c128;\H1.766858;\W1.000000;415
 73
     1
 44
1.0
  0
ENDBLK
  5
348
330
345
100
AcDbEntity
  8
0
100
AcDbBlockEnd
  0
BLOCK
  5
34F
330
34D
100
AcDbEntity
  8
0
100
AcDbBlockBegin
  2
Block_38
 70
     0
 10
0.0
 20
0.0
 30
0.0
  3
Block_38
  1

  0
LINE
  5
351
330
34D
100
AcDbEntity
  8
sunpo
 62
     8
420
  8421504
370
    15
100
AcDbLine
 10
193.2854795352027
 20
153.7195105344078
 30
0.0
 11
193.2854795352027
 21
160.8529568682789
 31
0.0
  0
LINE
  5
352
330
34D
100
AcDbEntity
  8
sunpo
 62
     8
420
  8421504
370
    15
100
AcDbLine
 10
193.6388512148748
 20
153.7195105344078
 30
0.0
 11
193.6388512148748
 21
160.8529568682789
 31
0.0
  0
LINE
  5
353
330
34D
100
AcDbEntity
  8
sunpo
 62
     8
420
  8421504
370
    15
100
AcDbLine
 10
192.5787361758578
 20
160.8529568682789
 30
0.0
 11
191.8719928165136
 21
160.8529568682789
 31
0.0
  0
LINE
  5
354
330
34D
100
AcDbEntity
  8
sunpo
 62
     8
420
  8421504
370
    15
100
AcDbLine
 10
194.345594574219
 20
160.8529568682789
 30
0.0
 11
195.0523379335638
 21
160.8529568682789
 31
0.0
  0
MTEXT
  5
355
330
34D
100
AcDbEntity
  8
sunpo
100
AcDbMText
 10
192.4314927361803
 20
161.913071316401
 30
0.0
 40
0.2
 41
0.0
 46
0.0
 71
     7
 72
     1
  1
\C8;\c8421504;\FKozGoPr6N-Regular|b0|i0|c128;\H1.766858;\W1.000000;10
 73
     1
 44
1.0
  0
LINE
  5
356
330
34D
100
AcDbEntity
  8
sunpo
 62
     8
420
  8421504
370
    15
100
AcDbLine
 10
193.2854795352027
 20
160.8529568682789
 30
0.0
 11
193.6388512148748
 21
160.8529568682789
 31
0.0
  0
ENDBLK
  5
350
330
34D
100
AcDbEntity
  8
0
100
AcDbBlockEnd
  0
BLOCK
  5
35B
330
359
100
AcDbEntity
  8
0
100
AcDbBlockBegin
  2
Block_39
 70
     0
 10
0.0
 20
0.0
 30
0.0
  3
Block_39
  1

  0
LINE
  5
35D
330
359
100
AcDbEntity
  8
sunpo
 62
     8
420
  8421504
370
    15
100
AcDbLine
 10
236.6373032751191
 20
151.4888860436201
 30
0.0
 11
236.6373032751191
 21
161.3352848408614
 31
0.0
  0
LINE
  5
35E
330
359
100
AcDbEntity
  8
sunpo
 62
     8
420
  8421504
370
    15
100
AcDbLine
 10
238.7575333531523
 20
153.7195105344078
 30
0.0
 11
238.7575333531523
 21
161.3352848408614
 31
0.0
  0
LINE
  5
35F
330
359
100
AcDbEntity
  8
sunpo
 62
     8
420
  8421504
370
    15
100
AcDbLine
 10
235.9305599157742
 20
161.3352848408614
 30
0.0
 11
235.22381655643
 21
161.3352848408614
 31
0.0
  0
LINE
  5
360
330
359
100
AcDbEntity
  8
sunpo
 62
     8
420
  8421504
370
    15
100
AcDbLine
 10
239.4642767124965
 20
161.3352848408614
 30
0.0
 11
240.1710200718413
 21
161.3352848408614
 31
0.0
  0
MTEXT
  5
361
330
359
100
AcDbEntity
  8
sunpo
100
AcDbMText
 10
233.6079629949834
 20
162.0175976666082
 30
0.0
 40
0.2
 41
0.0
 46
0.0
 71
     7
 72
     1
  1
\C8;\c8421504;\FKozGoPr6N-Regular|b0|i0|c128;\H1.766858;\W1.000000;60
 73
     1
 44
1.0
  0
LINE
  5
362
330
359
100
AcDbEntity
  8
sunpo
 62
     8
420
  8421504
370
    15
100
AcDbLine
 10
236.6373032751191
 20
161.3352848408614
 30
0.0
 11
238.7575333531523
 21
161.3352848408614
 31
0.0
  0
ENDBLK
  5
35C
330
359
100
AcDbEntity
  8
0
100
AcDbBlockEnd
  0
BLOCK
  5
365
330
363
100
AcDbEntity
  8
0
100
AcDbBlockBegin
  2
Block_40
 70
     0
 10
0.0
 20
0.0
 30
0.0
  3
Block_40
  1

  0
LINE
  5
367
330
363
100
AcDbEntity
  8
sunpo
 62
     8
420
  8421504
370
    15
100
AcDbLine
 10
238.7575333531523
 20
153.7195105344078
 30
0.0
 11
238.7575333531523
 21
161.3352848408614
 31
0.0
  0
LINE
  5
368
330
363
100
AcDbEntity
  8
sunpo
 62
     8
420
  8421504
370
    15
100
AcDbLine
 10
264.7303518090607
 20
152.5533848149491
 30
0.0
 11
264.7303518090607
 21
161.3352848408614
 31
0.0
  0
LINE
  5
369
330
363
100
AcDbEntity
  8
sunpo
 62
     8
420
  8421504
370
    15
100
AcDbLine
 10
239.4642767124965
 20
161.3352848408614
 30
0.0
 11
264.0236084497165
 21
161.3352848408614
 31
0.0
  0
MTEXT
  5
36A
330
363
100
AcDbEntity
  8
sunpo
100
AcDbMText
 10
249.3881367377832
 20
162.0420255467833
 30
0.0
 40
0.2
 41
0.0
 46
0.0
 71
     7
 72
     1
  1
\C8;\c8421504;\FKozGoPr6N-Regular|b0|i0|c128;\H1.766858;\W1.000000;735
 73
     1
 44
1.0
  0
ENDBLK
  5
366
330
363
100
AcDbEntity
  8
0
100
AcDbBlockEnd
  0
BLOCK
  5
36D
330
36B
100
AcDbEntity
  8
0
100
AcDbBlockBegin
  2
Block_41
 70
     0
 10
0.0
 20
0.0
 30
0.0
  3
Block_41
  1

  0
LINE
  5
36F
330
36B
100
AcDbEntity
  8
sunpo
 62
     8
420
  8421504
370
    15
100
AcDbLine
 10
236.6373032751191
 20
151.4888860436201
 30
0.0
 11
236.6373032751191
 21
165.5757449969283
 31
0.0
  0
LINE
  5
370
330
36B
100
AcDbEntity
  8
sunpo
 62
     8
420
  8421504
370
    15
100
AcDbLine
 10
264.7303518090607
 20
152.5533848149491
 30
0.0
 11
264.7303518090607
 21
165.5757449969283
 31
0.0
  0
LINE
  5
371
330
36B
100
AcDbEntity
  8
sunpo
 62
     8
420
  8421504
370
    15
100
AcDbLine
 10
237.3440466344633
 20
165.5757449969283
 30
0.0
 11
264.0236084497165
 21
165.5757449969283
 31
0.0
  0
MTEXT
  5
372
330
36B
100
AcDbEntity
  8
sunpo
100
AcDbMText
 10
248.3280162614315
 20
166.2824859203434
 30
0.0
 40
0.2
 41
0.0
 46
0.0
 71
     7
 72
     1
  1
\C8;\c8421504;\FKozGoPr6N-Regular|b0|i0|c128;\H1.766858;\W1.000000;795
 73
     1
 44
1.0
  0
ENDBLK
  5
36E
330
36B
100
AcDbEntity
  8
0
100
AcDbBlockEnd
  0
BLOCK
  5
375
330
373
100
AcDbEntity
  8
0
100
AcDbBlockBegin
  2
Block_42
 70
     0
 10
0.0
 20
0.0
 30
0.0
  3
Block_42
  1

  0
LINE
  5
377
330
373
100
AcDbEntity
  8
sunpo
 62
     8
420
  8421504
370
    15
100
AcDbLine
 10
242.8213076693828
 20
153.7195105344078
 30
0.0
 11
242.8213076693828
 21
157.0948246847946
 31
0.0
  0
LINE
  5
378
330
373
100
AcDbEntity
  8
sunpo
 62
     8
420
  8421504
370
    15
100
AcDbLine
 10
264.7303518090607
 20
152.5533848149491
 30
0.0
 11
264.7303518090607
 21
157.0948246847946
 31
0.0
  0
LINE
  5
379
330
373
100
AcDbEntity
  8
sunpo
 62
     8
420
  8421504
370
    15
100
AcDbLine
 10
243.5280510287276
 20
157.0948246847946
 30
0.0
 11
264.0236084497165
 21
157.0948246847946
 31
0.0
  0
MTEXT
  5
37A
330
373
100
AcDbEntity
  8
sunpo
100
AcDbMText
 10
251.5672672914376
 20
157.8015651732232
 30
0.0
 40
0.2
 41
0.0
 46
0.0
 71
     7
 72
     1
  1
\C8;\c8421504;\FKozGoPr6N-Regular|b0|i0|c128;\H1.766858;\W1.000000;620
 73
     1
 44
1.0
  0
ENDBLK
  5
376
330
373
100
AcDbEntity
  8
0
100
AcDbBlockEnd
  0
BLOCK
  5
37D
330
37B
100
AcDbEntity
  8
0
100
AcDbBlockBegin
  2
Block_43
 70
     0
 10
0.0
 20
0.0
 30
0.0
  3
Block_43
  1

  0
LINE
  5
37F
330
37B
100
AcDbEntity
  8
sunpo
 62
     8
420
  8421504
370
    15
100
AcDbLine
 10
268.4708353034681
 20
90.28929485670301
 30
0.0
 11
273.5646438008677
 21
90.28929485670301
 31
0.0
  0
LINE
  5
380
330
37B
100
AcDbEntity
  8
sunpo
 62
     8
420
  8421504
370
    15
100
AcDbLine
 10
265.4370951684055
 20
151.8466414556049
 30
0.0
 11
273.5646438008677
 21
151.8466414556049
 31
0.0
  0
LINE
  5
381
330
37B
100
AcDbEntity
  8
sunpo
 62
     8
420
  8421504
370
    15
100
AcDbLine
 10
273.5646438008677
 20
90.99603821604722
 30
0.0
 11
273.5646438008677
 21
151.1398980962604
 31
0.0
  0
INSERT
  5
383
330
37B
100
AcDbEntity
  8
sunpo
100
AcDbBlockReference
  2
Block_44
 10
0.0
 20
0.0
 30
0.0
  0
ENDBLK
  5
37E
330
37B
100
AcDbEntity
  8
0
100
AcDbBlockEnd
  0
BLOCK
  5
384
330
382
100
AcDbEntity
  8
0
100
AcDbBlockBegin
  2
Block_44
 70
     0
 10
0.0
 20
0.0
 30
0.0
  3
Block_44
  1

  0
MTEXT
  5
386
330
382
100
AcDbEntity
  8
sunpo
100
AcDbMText
 10
272.4992704663906
 20
114.4770778793665
 30
0.0
 40
0.2
 41
0.0
 46
0.0
 71
     7
 72
     1
  1
\C8;\c8421504;\FKozGoPr6N-Regular|b0|i0|c128;\H1.766858;\W1.000000;1742(
 11
0.0000000000000001
 21
1.0
 31
0.0
 73
     1
 44
1.0
  0
MTEXT
  5
387
330
382
100
AcDbEntity
  8
sunpo
100
AcDbMText
 10
272.4992704663906
 20
122.1334580857857
 30
0.0
 40
0.2
 41
0.0
 46
0.0
 71
     7
 72
     1
  1
\C8;\c8421504;\FArial Unicode MS|b0|i0|c129;\H1.766858;\W1.000000;本体
 11
0.0000000000000001
 21
1.0
 31
0.0
 73
     1
 44
1.0
  0
MTEXT
  5
388
330
382
100
AcDbEntity
  8
sunpo
100
AcDbMText
 10
272.4992704663906
 20
127.0699354066002
 30
0.0
 40
0.2
 41
0.0
 46
0.0
 71
     7
 72
     1
  1
\C8;\c8421504;\FKozGoPr6N-Regular|b0|i0|c128;\H1.766858;\W1.000000;)
 11
0.0000000000000001
 21
1.0
 31
0.0
 73
     1
 44
1.0
  0
ENDBLK
  5
385
330
382
100
AcDbEntity
  8
0
100
AcDbBlockEnd
  0
BLOCK
  5
38B
330
389
100
AcDbEntity
  8
0
100
AcDbBlockBegin
  2
Block_45
 70
     0
 10
0.0
 20
0.0
 30
0.0
  3
Block_45
  1

  0
LINE
  5
38D
330
389
100
AcDbEntity
  8
sunpo
 62
     8
420
  8421504
370
    15
100
AcDbLine
 10
268.4708353034681
 20
90.28929485670301
 30
0.0
 11
277.8051039569342
 21
90.28929485670301
 31
0.0
  0
LINE
  5
38E
330
389
100
AcDbEntity
  8
sunpo
 62
     8
420
  8421504
370
    15
100
AcDbLine
 10
265.4370951684055
 20
153.0128084041406
 30
0.0
 11
277.8051039569342
 21
153.0128084041406
 31
0.0
  0
LINE
  5
38F
330
389
100
AcDbEntity
  8
sunpo
 62
     8
420
  8421504
370
    15
100
AcDbLine
 10
277.8051039569342
 20
90.99603821604722
 30
0.0
 11
277.8051039569342
 21
152.3060650447961
 31
0.0
  0
INSERT
  5
391
330
389
100
AcDbEntity
  8
sunpo
100
AcDbBlockReference
  2
Block_46
 10
0.0
 20
0.0
 30
0.0
  0
ENDBLK
  5
38C
330
389
100
AcDbEntity
  8
0
100
AcDbBlockEnd
  0
BLOCK
  5
392
330
390
100
AcDbEntity
  8
0
100
AcDbBlockBegin
  2
Block_46
 70
     0
 10
0.0
 20
0.0
 30
0.0
  3
Block_46
  1

  0
MTEXT
  5
394
330
390
100
AcDbEntity
  8
sunpo
100
AcDbMText
 10
276.7469615032484
 20
111.3575439174728
 30
0.0
 40
0.2
 41
0.0
 46
0.0
 71
     7
 72
     1
  1
\C8;\c8421504;\FKozGoPr6N-Regular|b0|i0|c128;\H1.766858;\W1.000000;1775(
 11
0.0000000000000001
 21
1.0
 31
0.0
 73
     1
 44
1.0
  0
MTEXT
  5
395
330
390
100
AcDbEntity
  8
sunpo
100
AcDbMText
 10
276.7469615032484
 20
119.013924123892
 30
0.0
 40
0.2
 41
0.0
 46
0.0
 71
     7
 72
     1
  1
\C8;\c8421504;\FArial Unicode MS|b0|i0|c129;\H1.766858;\W1.000000;ドアヒンジ
 11
0.0000000000000001
 21
1.0
 31
0.0
 73
     1
 44
1.0
  0
MTEXT
  5
396
330
390
100
AcDbEntity
  8
sunpo
100
AcDbMText
 10
276.7469615032484
 20
131.355634190251
 30
0.0
 40
0.2
 41
0.0
 46
0.0
 71
     7
 72
     1
  1
\C8;\c8421504;\FKozGoPr6N-Regular|b0|i0|c128;\H1.766858;\W1.000000;)
 11
0.0000000000000001
 21
1.0
 31
0.0
 73
     1
 44
1.0
  0
ENDBLK
  5
393
330
390
100
AcDbEntity
  8
0
100
AcDbBlockEnd
  0
BLOCK
  5
39C
330
39A
100
AcDbEntity
  8
0
100
AcDbBlockBegin
  2
Block_47
 70
     0
 10
0.0
 20
0.0
 30
0.0
  3
Block_47
  1

  0
LINE
  5
39E
330
39A
100
AcDbEntity
  8
sunpo
 62
     8
420
  8421504
370
    15
100
AcDbLine
 10
241.6905182944315
 20
151.1398980962604
 30
0.0
 11
241.6905182944315
 21
146.8406192729698
 31
0.0
  0
LINE
  5
39F
330
39A
100
AcDbEntity
  8
sunpo
 62
     8
420
  8421504
370
    15
100
AcDbLine
 10
250.1714386065652
 20
151.1398980962604
 30
0.0
 11
250.1714386065652
 21
146.8406192729698
 31
0.0
  0
LINE
  5
3A0
330
39A
100
AcDbEntity
  8
sunpo
 62
     8
420
  8421504
370
    15
100
AcDbLine
 10
242.3972616537763
 20
146.8406192729698
 30
0.0
 11
249.4646952472209
 21
146.8406192729698
 31
0.0
  0
MTEXT
  5
3A1
330
39A
100
AcDbEntity
  8
sunpo
100
AcDbMText
 10
243.7223972982817
 20
147.5473676524577
 30
0.0
 40
0.2
 41
0.0
 46
0.0
 71
     7
 72
     1
  1
\C8;\c8421504;\FKozGoPr6N-Regular|b0|i0|c128;\H1.766858;\W1.000000;240
 73
     1
 44
1.0
  0
ENDBLK
  5
39D
330
39A
100
AcDbEntity
  8
0
100
AcDbBlockEnd
  0
ENDSEC
  0
SECTION
  2
ENTITIES
  0
LWPOLYLINE
  5
79
330
70
100
AcDbEntity
  8
Defpoints
 62
    18
420
        0
370
    25
100
AcDbPolyline
 90
        4
 70
     1
 43
0.0
 10
0.1033389449797899
 20
0.0
 10
296.9355498696494
 20
0.0
 10
296.9355498696494
 20
209.9027777253021
 10
0.1033389449797899
 20
209.9027777253021
  0
LWPOLYLINE
  5
7B
330
70
100
AcDbEntity
  8
waku
 62
    18
420
        0
370
    13
100
AcDbPolyline
 90
        4
 70
     1
 43
0.0
 10
10.70448933514665
 20
10.60115039016686
 10
286.3343994794825
 20
10.60115039016686
 10
286.3343994794825
 20
199.3016273351352
 10
10.70448933514665
 20
199.3016273351352
  0
MTEXT
  5
7C
330
70
100
AcDbEntity
  8
waku
100
AcDbMText
 10
239.9686212575534
 20
12.12820027366066
 30
0.0
 40
0.2
 41
0.0
 46
0.0
 71
     7
 72
     1
  1
\C18;\c0;\FArial Unicode MS|b0|i0|c129;\H2.889361;\W1.089750;吉岡電気工業株式会社
 73
     1
 44
1.0
  0
LWPOLYLINE
  5
7D
330
70
100
AcDbEntity
  8
waku
 62
    18
420
        0
370
    13
100
AcDbPolyline
 90
        5
 70
     0
 43
0.0
 10
231.5264519623202
 20
10.60115039016686
 10
286.3343994794825
 20
10.60115039016686
 10
286.3343994794825
 20
16.76683111738047
 10
231.5264519623202
 20
16.76683111738047
 10
231.5264519623202
 20
10.60115039016686
  0
LINE
  5
7E
330
70
100
AcDbEntity
  8
waku
 62
    18
420
        0
370
    13
100
AcDbLine
 10
238.3691500066318
 20
16.76683111738047
 30
0.0
 11
238.3691500066318
 21
10.60374764396434
 31
0.0
  0
SPLINE
  5
7F
330
70
100
AcDbEntity
  8
waku
 62
    18
420
        0
370
    13
100
AcDbSpline
210
0.0
220
0.0
230
1.0
 70
     9
 71
     3
 72
    17
 73
    13
 74
     0
 42
0.0000000001
 43
0.0000000001
 40
0.0
 40
0.0
 40
0.0
 40
0.0
 40
1.0
 40
1.0
 40
1.0
 40
2.0
 40
2.0
 40
2.0
 40
3.0
 40
3.0
 40
3.0
 40
4.0
 40
4.0
 40
4.0
 40
4.0
 10
232.4697878370995
 20
13.74106374107384
 30
0.0
 10
232.4697878370995
 20
12.24394671539812
 30
0.0
 10
233.6878998374935
 20
11.02550170297623
 30
0.0
 10
235.1856827878444
 20
11.02550170297623
 30
0.0
 10
236.6831327569472
 20
11.02550170297623
 30
0.0
 10
237.9012447573419
 20
12.24394671539812
 30
0.0
 10
237.9012447573419
 20
13.74106374107384
 30
0.0
 10
237.9012447573419
 20
15.23884672926195
 30
0.0
 10
236.6831327569472
 20
16.45695876042796
 30
0.0
 10
235.1856827878444
 20
16.45695876042796
 30
0.0
 10
233.6878998374935
 20
16.45695876042796
 30
0.0
 10
232.4697878370995
 20
15.23884672926195
 30
0.0
 10
232.4697878370995
 20
13.74106374107384
 30
0.0
  0
SPLINE
  5
80
330
70
100
AcDbEntity
  8
waku
 62
    18
420
        0
370
    13
100
AcDbSpline
210
0.0
220
0.0
230
1.0
 70
     9
 71
     3
 72
    17
 73
    13
 74
     0
 42
0.0000000001
 43
0.0000000001
 40
0.0
 40
0.0
 40
0.0
 40
0.0
 40
1.0
 40
1.0
 40
1.0
 40
2.0
 40
2.0
 40
2.0
 40
3.0
 40
3.0
 40
3.0
 40
4.0
 40
4.0
 40
4.0
 40
4.0
 10
233.0209716964435
 20
13.74106374107384
 30
0.0
 10
233.0209716964435
 20
14.93480154429171
 30
0.0
 10
233.9919450147832
 20
15.90610786841561
 30
0.0
 10
235.1856827878444
 20
15.90610786841561
 30
0.0
 10
236.3793872627812
 20
15.90610786841561
 30
0.0
 10
237.3500608979978
 20
14.93480154429171
 30
0.0
 10
237.3500608979978
 20
13.74106374107384
 30
0.0
 10
237.3500608979978
 20
12.54765891911248
 30
0.0
 10
236.3793872627812
 20
11.57668557624445
 30
0.0
 10
235.1856827878444
 20
11.57668557624445
 30
0.0
 10
233.9919450147832
 20
11.57668557624445
 30
0.0
 10
233.0209716964435
 20
12.54765891911248
 30
0.0
 10
233.0209716964435
 20
13.74106374107384
 30
0.0
  0
SPLINE
  5
81
330
70
100
AcDbEntity
  8
waku
100
AcDbSpline
210
0.0
220
0.0
230
1.0
 70
     9
 71
     3
 72
    17
 73
    13
 74
     0
 42
0.0000000001
 43
0.0000000001
 40
0.0
 40
0.0
 40
0.0
 40
0.0
 40
1.0
 40
1.0
 40
1.0
 40
2.0
 40
2.0
 40
2.0
 40
3.0
 40
3.0
 40
3.0
 40
4.0
 40
4.0
 40
4.0
 40
4.0
 10
233.0209716964435
 20
13.74106374107384
 30
0.0
 10
233.0209716964435
 20
14.93480154429171
 30
0.0
 10
233.9919450147832
 20
15.90610786841561
 30
0.0
 10
235.1856827878444
 20
15.90610786841561
 30
0.0
 10
236.3793872627812
 20
15.90610786841561
 30
0.0
 10
237.3500608979978
 20
14.93480154429171
 30
0.0
 10
237.3500608979978
 20
13.74106374107384
 30
0.0
 10
237.3500608979978
 20
12.54765891911248
 30
0.0
 10
236.3793872627812
 20
11.57668557624445
 30
0.0
 10
235.1856827878444
 20
11.57668557624445
 30
0.0
 10
233.9919450147832
 20
11.57668557624445
 30
0.0
 10
233.0209716964435
 20
12.54765891911248
 30
0.0
 10
233.0209716964435
 20
13.74106374107384
 30
0.0
  0
SPLINE
  5
82
330
70
100
AcDbEntity
  8
waku
100
AcDbSpline
210
0.0
220
0.0
230
1.0
 70
     9
 71
     3
 72
    17
 73
    13
 74
     0
 42
0.0000000001
 43
0.0000000001
 40
0.0
 40
0.0
 40
0.0
 40
0.0
 40
1.0
 40
1.0
 40
1.0
 40
2.0
 40
2.0
 40
2.0
 40
3.0
 40
3.0
 40
3.0
 40
4.0
 40
4.0
 40
4.0
 40
4.0
 10
232.4697878370995
 20
13.74106374107384
 30
0.0
 10
232.4697878370995
 20
12.24394671539812
 30
0.0
 10
233.6878998374935
 20
11.02550170297623
 30
0.0
 10
235.1856827878444
 20
11.02550170297623
 30
0.0
 10
236.6831327569472
 20
11.02550170297623
 30
0.0
 10
237.9012447573419
 20
12.24394671539812
 30
0.0
 10
237.9012447573419
 20
13.74106374107384
 30
0.0
 10
237.9012447573419
 20
15.23884672926195
 30
0.0
 10
236.6831327569472
 20
16.45695876042796
 30
0.0
 10
235.1856827878444
 20
16.45695876042796
 30
0.0
 10
233.6878998374935
 20
16.45695876042796
 30
0.0
 10
232.4697878370995
 20
15.23884672926195
 30
0.0
 10
232.4697878370995
 20
13.74106374107384
 30
0.0
  0
HATCH
  5
83
330
70
100
AcDbEntity
  8
waku
 62
    18
420
        0
440
 33554687
100
AcDbHatch
 10
0.0
 20
0.0
 30
0.0
210
0.0
220
0.0
230
1.0
  2
SOLID
 70
     1
 71
     1
 91
        2
 92
        1
 93
        1
 72
     4
 94
        3
 73
     0
 74
     0
 95
       17
 96
       13
 40
0.0
 40
0.0
 40
0.0
 40
0.0
 40
1.0
 40
1.0
 40
1.0
 40
2.0
 40
2.0
 40
2.0
 40
3.0
 40
3.0
 40
3.0
 40
4.0
 40
4.0
 40
4.0
 40
4.0
 10
233.0209716964435
 20
13.74106374107384
 10
233.0209716964435
 20
14.93480154429171
 10
233.9919450147832
 20
15.90610786841561
 10
235.1856827878444
 20
15.90610786841561
 10
236.3793872627812
 20
15.90610786841561
 10
237.3500608979978
 20
14.93480154429171
 10
237.3500608979978
 20
13.74106374107384
 10
237.3500608979978
 20
12.54765891911248
 10
236.3793872627812
 20
11.57668557624445
 10
235.1856827878444
 20
11.57668557624445
 10
233.9919450147832
 20
11.57668557624445
 10
233.0209716964435
 20
12.54765891911248
 10
233.0209716964435
 20
13.74106374107384
 97
        0
 97
        1
330
81
 92
        1
 93
        2
 72
     4
 94
        3
 73
     0
 74
     0
 95
       17
 96
       13
 40
0.0
 40
0.0
 40
0.0
 40
0.0
 40
1.0
 40
1.0
 40
1.0
 40
2.0
 40
2.0
 40
2.0
 40
3.0
 40
3.0
 40
3.0
 40
4.0
 40
4.0
 40
4.0
 40
4.0
 10
232.4697878370995
 20
13.74106374107384
 10
232.4697878370995
 20
12.24394671539812
 10
233.6878998374935
 20
11.02550170297623
 10
235.1856827878444
 20
11.02550170297623
 10
236.6831327569472
 20
11.02550170297623
 10
237.9012447573419
 20
12.24394671539812
 10
237.9012447573419
 20
13.74106374107384
 10
237.9012447573419
 20
15.23884672926195
 10
236.6831327569472
 20
16.45695876042796
 10
235.1856827878444
 20
16.45695876042796
 10
233.6878998374935
 20
16.45695876042796
 10
232.4697878370995
 20
15.23884672926195
 10
232.4697878370995
 20
13.74106374107384
 97
        0
 72
     1
 10
232.4697878370995
 20
13.74106374107384
 11
232.4697878370995
 21
13.74106374107384
 97
        0
 75
     2
 76
     1
 98
        1
 10
0.0
 20
0.0
450
        0
451
        0
460
0.0
461
0.0
452
        0
462
0.0
453
        0
470

  0
LWPOLYLINE
  5
84
330
70
100
AcDbEntity
  8
waku
 62
    18
420
        0
370
    13
100
AcDbPolyline
 90
        5
 70
     0
 43
0.0
 10
234.6380951259757
 20
13.73000876337025
 10
234.6380951259757
 20
11.50319661301651
 10
234.0869112666317
 20
11.50319661301651
 10
234.0869112666317
 20
13.73000876337025
 10
234.6380951259757
 20
13.73000876337025
  0
LWPOLYLINE
  5
85
330
70
100
AcDbEntity
  8
waku
100
AcDbPolyline
 90
        4
 70
     1
 43
0.0
 10
234.6380951259757
 20
13.73000876337025
 10
234.6380951259757
 20
11.50319661301651
 10
234.0869112666317
 20
11.50319661301651
 10
234.0869112666317
 20
13.73000876337025
  0
HATCH
  5
86
330
70
100
AcDbEntity
  8
waku
 62
    18
420
        0
440
 33554687
100
AcDbHatch
 10
0.0
 20
0.0
 30
0.0
210
0.0
220
0.0
230
1.0
  2
SOLID
 70
     1
 71
     1
 91
        1
 92
        1
 93
        4
 72
     1
 10
234.6380951259757
 20
13.73000876337025
 11
234.6380951259757
 21
11.50319661301651
 72
     1
 10
234.6380951259757
 20
11.50319661301651
 11
234.0869112666317
 21
11.50319661301651
 72
     1
 10
234.0869112666317
 20
11.50319661301651
 11
234.0869112666317
 21
13.73000876337025
 72
     1
 10
234.0869112666317
 20
13.73000876337025
 11
234.6380951259757
 21
13.73000876337025
 97
        1
330
85
 75
     2
 76
     1
 98
        1
 10
0.0
 20
0.0
450
        0
451
        0
460
0.0
461
0.0
452
        0
462
0.0
453
        0
470

  0
LWPOLYLINE
  5
87
330
70
100
AcDbEntity
  8
waku
 62
    18
420
        0
370
    13
100
AcDbPolyline
 90
        5
 70
     0
 43
0.0
 10
236.3998989076407
 20
15.97829820474449
 10
236.3998989076407
 20
11.50775845622544
 10
235.8490480295442
 20
11.50775845622544
 10
235.8490480295442
 20
15.97829820474449
 10
236.3998989076407
 20
15.97829820474449
  0
LWPOLYLINE
  5
88
330
70
100
AcDbEntity
  8
waku
100
AcDbPolyline
 90
        4
 70
     1
 43
0.0
 10
236.3998989076407
 20
15.97829820474449
 10
236.3998989076407
 20
11.50775845622544
 10
235.8490480295442
 20
11.50775845622544
 10
235.8490480295442
 20
15.97829820474449
  0
HATCH
  5
89
330
70
100
AcDbEntity
  8
waku
 62
    18
420
        0
440
 33554687
100
AcDbHatch
 10
0.0
 20
0.0
 30
0.0
210
0.0
220
0.0
230
1.0
  2
SOLID
 70
     1
 71
     1
 91
        1
 92
        1
 93
        4
 72
     1
 10
236.3998989076407
 20
15.97829820474449
 11
236.3998989076407
 21
11.50775845622544
 72
     1
 10
236.3998989076407
 20
11.50775845622544
 11
235.8490480295442
 21
11.50775845622544
 72
     1
 10
235.8490480295442
 20
11.50775845622544
 11
235.8490480295442
 21
15.97829820474449
 72
     1
 10
235.8490480295442
 20
15.97829820474449
 11
236.3998989076407
 21
15.97829820474449
 97
        1
330
88
 75
     2
 76
     1
 98
        1
 10
0.0
 20
0.0
450
        0
451
        0
460
0.0
461
0.0
452
        0
462
0.0
453
        0
470

  0
LWPOLYLINE
  5
8A
330
70
100
AcDbEntity
  8
waku
 62
    18
420
        0
370
    13
100
AcDbPolyline
 90
        5
 70
     0
 43
0.0
 10
233.8270859990391
 20
15.72433340069596
 10
234.64621986842
 20
13.8243090551063
 10
234.1356930194223
 20
13.60417514667964
 10
233.3165591500408
 20
15.50416619414422
 10
233.8270859990391
 20
15.72433340069596
  0
LWPOLYLINE
  5
8B
330
70
100
AcDbEntity
  8
waku
100
AcDbPolyline
 90
        4
 70
     1
 43
0.0
 10
233.8270859990391
 20
15.72433340069596
 10
234.64621986842
 20
13.8243090551063
 10
234.1356930194216
 20
13.60417514667964
 10
233.3165591500408
 20
15.50416619414422
  0
HATCH
  5
8C
330
70
100
AcDbEntity
  8
waku
 62
    18
420
        0
440
 33554687
100
AcDbHatch
 10
0.0
 20
0.0
 30
0.0
210
0.0
220
0.0
230
1.0
  2
SOLID
 70
     1
 71
     1
 91
        1
 92
        1
 93
        4
 72
     1
 10
233.8270859990391
 20
15.72433340069596
 11
234.64621986842
 21
13.8243090551063
 72
     1
 10
234.64621986842
 20
13.8243090551063
 11
234.1356930194216
 21
13.60417514667964
 72
     1
 10
234.1356930194216
 20
13.60417514667964
 11
233.3165591500408
 21
15.50416619414422
 72
     1
 10
233.3165591500408
 20
15.50416619414422
 11
233.8270859990391
 21
15.72433340069596
 97
        1
330
8B
 75
     2
 76
     1
 98
        1
 10
0.0
 20
0.0
450
        0
451
        0
460
0.0
461
0.0
452
        0
462
0.0
453
        0
470

  0
LWPOLYLINE
  5
8D
330
70
100
AcDbEntity
  8
waku
 62
    18
420
        0
370
    13
100
AcDbPolyline
 90
        5
 70
     0
 43
0.0
 10
235.2591717492153
 20
16.28753789731032
 10
235.7563793483047
 20
16.05048854107273
 10
234.5922492185085
 20
13.61033529991779
 10
234.0950360090759
 20
13.8477176374119
 10
235.2591717492153
 20
16.28753789731032
  0
LWPOLYLINE
  5
8E
330
70
100
AcDbEntity
  8
waku
100
AcDbPolyline
 90
        4
 70
     1
 43
0.0
 10
235.2591717492153
 20
16.28753789731032
 10
235.7563793483047
 20
16.05048854107273
 10
234.5922492185085
 20
13.61033529991843
 10
234.0950360090759
 20
13.8477176374119
  0
HATCH
  5
8F
330
70
100
AcDbEntity
  8
waku
 62
    18
420
        0
440
 33554687
100
AcDbHatch
 10
0.0
 20
0.0
 30
0.0
210
0.0
220
0.0
230
1.0
  2
SOLID
 70
     1
 71
     1
 91
        1
 92
        1
 93
        4
 72
     1
 10
235.2591717492153
 20
16.28753789731032
 11
235.7563793483047
 21
16.05048854107273
 72
     1
 10
235.7563793483047
 20
16.05048854107273
 11
234.5922492185085
 21
13.61033529991843
 72
     1
 10
234.5922492185085
 20
13.61033529991843
 11
234.0950360090759
 21
13.8477176374119
 72
     1
 10
234.0950360090759
 20
13.8477176374119
 11
235.2591717492153
 21
16.28753789731032
 97
        1
330
8E
 75
     2
 76
     1
 98
        1
 10
0.0
 20
0.0
450
        0
451
        0
460
0.0
461
0.0
452
        0
462
0.0
453
        0
470

  0
MTEXT
  5
90
330
70
100
AcDbEntity
  8
waku
100
AcDbMText
 10
274.5468723882318
 20
8.742873157858634
 30
0.0
 40
0.2
 41
0.0
 46
0.0
 71
     7
 72
     1
  1
\C18;\c0;\FKozGoPr6N-Regular|b0|i0|c128;\H1.414504;\W1.000000;IWO19JSSS
 73
     1
 44
1.0
  0
SPLINE
  5
92
330
70
100
AcDbEntity
  8
moji
 62
    18
420
        0
370
    18
100
AcDbSpline
210
0.0
220
0.0
230
1.0
 70
     9
 71
     3
 72
    59
 73
    55
 74
     0
 42
0.0000000001
 43
0.0000000001
 40
0.0
 40
0.0
 40
0.0
 40
0.0
 40
1.0
 40
1.0
 40
1.0
 40
2.0
 40
2.0
 40
2.0
 40
3.0
 40
3.0
 40
3.0
 40
4.0
 40
4.0
 40
4.0
 40
5.0
 40
5.0
 40
5.0
 40
6.0
 40
6.0
 40
6.0
 40
7.0
 40
7.0
 40
7.0
 40
8.0
 40
8.0
 40
8.0
 40
9.0
 40
9.0
 40
9.0
 40
10.0
 40
10.0
 40
10.0
 40
11.0
 40
11.0
 40
11.0
 40
12.0
 40
12.0
 40
12.0
 40
13.0
 40
13.0
 40
13.0
 40
14.0
 40
14.0
 40
14.0
 40
15.0
 40
15.0
 40
15.0
 40
16.0
 40
16.0
 40
16.0
 40
17.0
 40
17.0
 40
17.0
 40
18.0
 40
18.0
 40
18.0
 40
18.0
 10
24.10584228138186
 20
188.3401462283076
 30
0.0
 10
24.55935860699368
 20
186.8639636913233
 30
0.0
 10
25.90158863669112
 20
185.7913390675022
 30
0.0
 10
27.48459301378335
 20
185.7913390675022
 30
0.0
 10
29.43521305579036
 20
185.7913390675022
 30
0.0
 10
31.02478751940853
 20
187.4268011179373
 30
0.0
 10
31.02478751940853
 20
189.4374280010078
 30
0.0
 10
31.02478751940853
 20
191.4468181618773
 30
0.0
 10
29.43521305579036
 20
193.0827955132293
 30
0.0
 10
27.48459301378335
 20
193.0827955132293
 30
0.0
 10
26.31638009936704
 20
193.0827955132293
 30
0.0
 10
25.33169160191107
 20
192.4595390540949
 30
0.0
 10
24.63410300311922
 20
191.5995275886359
 30
0.0
 10
24.63410300311922
 20
191.5995275886359
 30
0.0
 10
21.28024194053967
 20
187.4630525374497
 30
0.0
 10
21.28024194053967
 20
187.4630525374497
 30
0.0
 10
21.27622259338715
 20
187.4580025884627
 30
0.0
 10
21.26903414559448
 20
187.4549880780982
 30
0.0
 10
21.26073780083053
 20
187.4549880780982
 30
0.0
 10
21.24739150707994
 20
187.4549880780982
 30
0.0
 10
21.23569417626368
 20
187.4652940964384
 30
0.0
 10
21.23569417626368
 20
187.4788980406479
 30
0.0
 10
21.23569417626368
 20
187.4788980406479
 30
0.0
 10
21.24097601066309
 20
191.7638312860275
 30
0.0
 10
21.24097601066309
 20
191.7638312860275
 30
0.0
 10
21.24097601066309
 20
191.7638312860275
 30
0.0
 10
21.24097601066309
 20
191.7630840996978
 30
0.0
 10
21.24097601066309
 20
191.7630840996978
 30
0.0
 10
21.24097601066309
 20
192.210442590808
 30
0.0
 10
20.87678708755977
 20
192.5730340810683
 30
0.0
 10
20.43030460800876
 20
192.5730340810683
 30
0.0
 10
19.98217316552308
 20
192.5730340810683
 30
0.0
 10
19.62022580140911
 20
192.210442590808
 30
0.0
 10
19.62022580140911
 20
191.7630840996978
 30
0.0
 10
19.62022580140911
 20
191.7630840996978
 30
0.0
 10
19.62022580140911
 20
191.7638312860275
 30
0.0
 10
19.62022580140911
 20
191.7638312860275
 30
0.0
 10
19.62022580140911
 20
191.7638312860275
 30
0.0
 10
19.61782965214478
 20
187.4001342954817
 30
0.0
 10
19.61782965214478
 20
187.4001342954817
 30
0.0
 10
19.61973626553772
 20
186.511703984449
 30
0.0
 10
20.34185320560251
 20
185.7900765802556
 30
0.0
 10
21.23066999232256
 20
185.7913390675022
 30
0.0
 10
21.71476943881582
 20
185.7923439042908
 30
0.0
 10
22.11685808707221
 20
185.9420388206846
 30
0.0
 10
22.44430604651998
 20
186.3461377998112
 30
0.0
 10
22.44430604651998
 20
186.3461377998112
 30
0.0
 10
24.06255700544591
 20
188.3502203612354
 30
0.0
 10
24.06255700544591
 20
188.3502203612354
 30
0.0
 10
24.06734930385329
 20
188.3547550093051
 30
0.0
 10
24.07425433596666
 20
188.3582848205866
 30
0.0
 10
24.08231879511442
 20
188.3582848205866
 30
0.0
 10
24.0937584751833
 20
188.3582848205866
 30
0.0
 10
24.10344613217849
 20
188.3512251980237
 30
0.0
 10
24.10584228138186
 20
188.3401462283076
 30
0.0
  0
SPLINE
  5
93
330
70
100
AcDbEntity
  8
moji
 62
    18
420
        0
370
    18
100
AcDbSpline
210
0.0
220
0.0
230
1.0
 70
     9
 71
     3
 72
    17
 73
    13
 74
     0
 42
0.0000000001
 43
0.0000000001
 40
0.0
 40
0.0
 40
0.0
 40
0.0
 40
1.0
 40
1.0
 40
1.0
 40
2.0
 40
2.0
 40
2.0
 40
3.0
 40
3.0
 40
3.0
 40
4.0
 40
4.0
 40
4.0
 40
4.0
 10
20.41922563829271
 20
195.2848824520184
 30
0.0
 10
19.89449471449234
 20
195.2848824520184
 30
0.0
 10
19.46875309685122
 20
194.8599137857525
 30
0.0
 10
19.46875309685122
 20
194.335054036723
 30
0.0
 10
19.46875309685122
 20
193.8109414740228
 30
0.0
 10
19.89449471449234
 20
193.3854832718861
 30
0.0
 10
20.41922563829271
 20
193.3854832718861
 30
0.0
 10
20.9432093757634
 20
193.3854832718861
 30
0.0
 10
21.36879640312955
 20
193.8109414740228
 30
0.0
 10
21.36879640312955
 20
194.335054036723
 30
0.0
 10
21.36879640312955
 20
194.8599137857525
 30
0.0
 10
20.9432093757634
 20
195.2848824520184
 30
0.0
 10
20.41922563829271
 20
195.2848824520184
 30
0.0
  0
SPLINE
  5
94
330
70
100
AcDbEntity
  8
moji
 62
    18
420
        0
370
    18
100
AcDbSpline
210
0.0
220
0.0
230
1.0
 70
     9
 71
     3
 72
    17
 73
    13
 74
     0
 42
0.0000000001
 43
0.0000000001
 40
0.0
 40
0.0
 40
0.0
 40
0.0
 40
1.0
 40
1.0
 40
1.0
 40
2.0
 40
2.0
 40
2.0
 40
3.0
 40
3.0
 40
3.0
 40
4.0
 40
4.0
 40
4.0
 40
4.0
 10
25.56203110599961
 20
189.4329191179839
 30
0.0
 10
25.56203110599961
 20
190.5457887434241
 30
0.0
 10
26.42745320922478
 20
191.4533624835236
 30
0.0
 10
27.48951413741667
 20
191.4533624835236
 30
0.0
 10
28.55245107714555
 20
191.4533624835236
 30
0.0
 10
29.41722905424073
 20
190.5457887434241
 30
0.0
 10
29.41722905424073
 20
189.4329191179839
 30
0.0
 10
29.41722905424073
 20
188.3187612402511
 30
0.0
 10
28.55245107714555
 20
187.413712474645
 30
0.0
 10
27.48951413741667
 20
187.413712474645
 30
0.0
 10
26.42745320922478
 20
187.413712474645
 30
0.0
 10
25.56203110599961
 20
188.3187612402511
 30
0.0
 10
25.56203110599961
 20
189.4329191179839
 30
0.0
  0
SPLINE
  5
95
330
70
100
AcDbEntity
  8
moji
 62
    18
420
        0
370
    18
100
AcDbSpline
210
0.0
220
0.0
230
1.0
 70
    11
 71
     3
 72
    65
 73
    61
 74
     0
 42
0.0000000001
 43
0.0000000001
 40
0.0
 40
0.0
 40
0.0
 40
0.0
 40
1.0
 40
1.0
 40
1.0
 40
2.0
 40
2.0
 40
2.0
 40
3.0
 40
3.0
 40
3.0
 40
4.0
 40
4.0
 40
4.0
 40
5.0
 40
5.0
 40
5.0
 40
6.0
 40
6.0
 40
6.0
 40
7.0
 40
7.0
 40
7.0
 40
8.0
 40
8.0
 40
8.0
 40
9.0
 40
9.0
 40
9.0
 40
10.0
 40
10.0
 40
10.0
 40
11.0
 40
11.0
 40
11.0
 40
12.0
 40
12.0
 40
12.0
 40
13.0
 40
13.0
 40
13.0
 40
14.0
 40
14.0
 40
14.0
 40
15.0
 40
15.0
 40
15.0
 40
16.0
 40
16.0
 40
16.0
 40
17.0
 40
17.0
 40
17.0
 40
18.0
 40
18.0
 40
18.0
 40
19.0
 40
19.0
 40
19.0
 40
20.0
 40
20.0
 40
20.0
 40
20.0
 10
35.47693579989002
 20
190.9126314662497
 30
0.0
 10
35.47693579989002
 20
190.9126314662497
 30
0.0
 10
35.49806313695409
 20
190.9121419303786
 30
0.0
 10
35.49806313695409
 20
190.9121419303786
 30
0.0
 10
35.96845556717186
 20
191.5371504126306
 30
0.0
 10
36.55043640815111
 20
191.7983049173761
 30
0.0
 10
37.27242450474741
 20
191.7983049173761
 30
0.0
 10
38.08374001305225
 20
191.7983049173761
 30
0.0
 10
38.78362170086705
 20
191.4686926858049
 30
0.0
 10
39.18895739195446
 20
190.7231810841079
 30
0.0
 10
39.57316574597781
 20
191.4249178729041
 30
0.0
 10
40.32939558764519
 20
191.7968105447167
 30
0.0
 10
41.0969362841552
 20
191.7968105447167
 30
0.0
 10
42.51955325487705
 20
191.7948008711401
 30
0.0
 10
43.01295387045819
 20
190.8638324694078
 30
0.0
 10
43.01220786930204
 20
189.569783041544
 30
0.0
 10
43.01220786930204
 20
189.569783041544
 30
0.0
 10
43.01030007080263
 20
185.9883386080789
 30
0.0
 10
43.01030007080263
 20
185.9883386080789
 30
0.0
 10
43.01030007080263
 20
185.9883386080789
 30
0.0
 10
41.01768300511966
 20
185.9896010953255
 30
0.0
 10
41.01768300511966
 20
185.9896010953255
 30
0.0
 10
41.01768300511966
 20
185.9896010953255
 30
0.0
 10
41.01904855251523
 20
188.6730306207016
 30
0.0
 10
41.01904855251523
 20
188.6730306207016
 30
0.0
 10
41.01904855251523
 20
189.2552691268414
 30
0.0
 10
41.04169716262142
 20
190.2063600293835
 30
0.0
 10
40.19678290000038
 20
190.2073648661717
 30
0.0
 10
39.27689349122225
 20
190.2088850038769
 30
0.0
 10
39.24316704705555
 20
189.3430764031016
 30
0.0
 10
39.24216221029261
 20
188.6735459216188
 30
0.0
 10
39.24216221029261
 20
188.6735459216188
 30
0.0
 10
39.24128619875592
 20
185.9898587457841
 30
0.0
 10
39.24128619875592
 20
185.9898587457841
 30
0.0
 10
39.24128619875592
 20
185.9898587457841
 30
0.0
 10
37.24776735649077
 20
185.9918684193607
 30
0.0
 10
37.24776735649077
 20
185.9918684193607
 30
0.0
 10
37.24776735649077
 20
185.9918684193607
 30
0.0
 10
37.24864336802777
 20
188.675066059324
 30
0.0
 10
37.24864336802777
 20
188.675066059324
 30
0.0
 10
37.24941631938371
 20
189.3010536133188
 30
0.0
 10
37.24990585524227
 20
190.2534070031074
 30
0.0
 10
36.3632275897274
 20
190.2551847912709
 30
0.0
 10
35.47515900652402
 20
190.2556743271423
 30
0.0
 10
35.47515900652402
 20
189.3020584501068
 30
0.0
 10
35.47515900652402
 20
188.6765604319834
 30
0.0
 10
35.47515900652402
 20
188.6765604319834
 30
0.0
 10
35.47289068779372
 20
185.9928732561486
 30
0.0
 10
35.47289068779372
 20
185.9928732561486
 30
0.0
 10
35.47289068779372
 20
185.9928732561486
 30
0.0
 10
33.47937184552888
 20
185.9943933938538
 30
0.0
 10
33.47937184552888
 20
185.9943933938538
 30
0.0
 10
33.47937184552888
 20
185.9943933938538
 30
0.0
 10
33.48089198319556
 20
191.6141363696334
 30
0.0
 10
33.48089198319556
 20
191.6141363696334
 30
0.0
 10
33.48089198319556
 20
191.6141363696334
 30
0.0
 10
35.47693579989002
 20
191.6136210687165
 30
0.0
 10
35.47693579989002
 20
191.6136210687165
 30
0.0
 10
35.47693579989002
 20
191.6136210687165
 30
0.0
 10
35.47693579989002
 20
190.9126314662497
 30
0.0
 10
35.47693579989002
 20
190.9126314662497
 30
0.0
  0
SPLINE
  5
96
330
70
100
AcDbEntity
  8
moji
 62
    18
420
        0
370
    18
100
AcDbSpline
210
0.0
220
0.0
230
1.0
 70
    11
 71
     3
 72
    35
 73
    31
 74
     0
 42
0.0000000001
 43
0.0000000001
 40
0.0
 40
0.0
 40
0.0
 40
0.0
 40
1.0
 40
1.0
 40
1.0
 40
2.0
 40
2.0
 40
2.0
 40
3.0
 40
3.0
 40
3.0
 40
4.0
 40
4.0
 40
4.0
 40
5.0
 40
5.0
 40
5.0
 40
6.0
 40
6.0
 40
6.0
 40
7.0
 40
7.0
 40
7.0
 40
8.0
 40
8.0
 40
8.0
 40
9.0
 40
9.0
 40
9.0
 40
10.0
 40
10.0
 40
10.0
 40
10.0
 10
50.19557858106228
 20
185.9830567736795
 30
0.0
 10
50.19557858106228
 20
185.9830567736795
 30
0.0
 10
48.20157020293857
 20
185.9840616104674
 30
0.0
 10
48.20157020293857
 20
185.9840616104674
 30
0.0
 10
48.20157020293857
 20
185.9840616104674
 30
0.0
 10
48.20157020293857
 20
186.6088124422612
 30
0.0
 10
48.20157020293857
 20
186.6088124422612
 30
0.0
 10
48.20157020293857
 20
186.6088124422612
 30
0.0
 10
48.17866507775562
 20
186.6088124422612
 30
0.0
 10
48.17866507775562
 20
186.6088124422612
 30
0.0
 10
47.82741021654334
 20
186.0517463859183
 30
0.0
 10
47.13889091366187
 20
185.7998930627251
 30
0.0
 10
46.48015600303152
 20
185.7998930627251
 30
0.0
 10
44.8161205587852
 20
185.8006402490548
 30
0.0
 10
43.64386253227227
 20
187.1935759228948
 30
0.0
 10
43.6446354836282
 20
188.8036336381205
 30
0.0
 10
43.64564032039115
 20
190.4136913533462
 30
0.0
 10
44.7973893709245
 20
191.7932807334352
 30
0.0
 10
46.46155364039708
 20
191.7932807334352
 30
0.0
 10
47.10944146699817
 20
191.792275896647
 30
0.0
 10
47.78853206915088
 20
191.5504709413357
 30
0.0
 10
48.20319340078632
 20
191.0578174996199
 30
0.0
 10
48.20319340078632
 20
191.0578174996199
 30
0.0
 10
48.20319340078632
 20
191.6053247239526
 30
0.0
 10
48.20319340078632
 20
191.6053247239526
 30
0.0
 10
48.20319340078632
 20
191.6053247239526
 30
0.0
 10
50.19910975896568
 20
191.6030573999177
 30
0.0
 10
50.19910975896568
 20
191.6030573999177
 30
0.0
 10
50.19910975896568
 20
191.6030573999177
 30
0.0
 10
50.19557858106228
 20
185.9830567736795
 30
0.0
 10
50.19557858106228
 20
185.9830567736795
 30
0.0
  0
SPLINE
  5
97
330
70
100
AcDbEntity
  8
moji
 62
    18
420
        0
370
    18
100
AcDbSpline
210
0.0
220
0.0
230
1.0
 70
     9
 71
     3
 72
    17
 73
    13
 74
     0
 42
0.0000000001
 43
0.0000000001
 40
0.0
 40
0.0
 40
0.0
 40
0.0
 40
1.0
 40
1.0
 40
1.0
 40
2.0
 40
2.0
 40
2.0
 40
3.0
 40
3.0
 40
3.0
 40
4.0
 40
4.0
 40
4.0
 40
4.0
 10
45.70493732305189
 20
188.7918074820747
 30
0.0
 10
45.70493732305189
 20
188.0782187721867
 30
0.0
 10
46.17496904263671
 20
187.5304796624412
 30
0.0
 10
46.98615572571561
 20
187.5304796624412
 30
0.0
 10
47.79711052338783
 20
187.5304796624412
 30
0.0
 10
48.26812131469041
 20
188.077471585857
 30
0.0
 10
48.26912615145335
 20
188.790029693911
 30
0.0
 10
48.26938380190522
 20
189.4799660917076
 30
0.0
 10
47.79811536015077
 20
190.0616892969305
 30
0.0
 10
46.98716056247856
 20
190.0616892969305
 30
0.0
 10
46.17646341525821
 20
190.0626941337188
 30
0.0
 10
45.70493732305189
 20
189.4819757652841
 30
0.0
 10
45.70493732305189
 20
188.7918074820747
 30
0.0
  0
SPLINE
  5
98
330
70
100
AcDbEntity
  8
moji
 62
    18
420
        0
370
    18
100
AcDbSpline
210
0.0
220
0.0
230
1.0
 70
    11
 71
     3
 72
    35
 73
    31
 74
     0
 42
0.0000000001
 43
0.0000000001
 40
0.0
 40
0.0
 40
0.0
 40
0.0
 40
1.0
 40
1.0
 40
1.0
 40
2.0
 40
2.0
 40
2.0
 40
3.0
 40
3.0
 40
3.0
 40
4.0
 40
4.0
 40
4.0
 40
5.0
 40
5.0
 40
5.0
 40
6.0
 40
6.0
 40
6.0
 40
7.0
 40
7.0
 40
7.0
 40
8.0
 40
8.0
 40
8.0
 40
9.0
 40
9.0
 40
9.0
 40
10.0
 40
10.0
 40
10.0
 40
10.0
 10
50.9865397036593
 20
195.0757991049377
 30
0.0
 10
50.9865397036593
 20
195.0757991049377
 30
0.0
 10
52.98016160610488
 20
195.0745366176909
 30
0.0
 10
52.98016160610488
 20
195.0745366176909
 30
0.0
 10
52.98016160610488
 20
195.0745366176909
 30
0.0
 10
52.97766239672045
 20
191.0545453387967
 30
0.0
 10
52.97766239672045
 20
191.0545453387967
 30
0.0
 10
53.40577438776488
 20
191.5467092446415
 30
0.0
 10
54.07443030540681
 20
191.7882565494941
 30
0.0
 10
54.7203327589175
 20
191.7879988990359
 30
0.0
 10
56.3857337505597
 20
191.7852162740837
 30
0.0
 10
57.53485476648268
 20
190.4051373581236
 30
0.0
 10
57.53459711603081
 20
188.7945643419807
 30
0.0
 10
57.53410758017192
 20
187.1726804707093
 30
0.0
 10
56.37102190975044
 20
185.7940959274085
 30
0.0
 10
54.69464500885305
 20
185.7951007641968
 30
0.0
 10
54.03807436201971
 20
185.7951007641968
 30
0.0
 10
53.35859859000374
 20
186.0477270387651
 30
0.0
 10
52.99765607179597
 20
186.6065451182266
 30
0.0
 10
52.99765607179597
 20
186.6065451182266
 30
0.0
 10
52.97539507274301
 20
186.6063132328138
 30
0.0
 10
52.97539507274301
 20
186.6063132328138
 30
0.0
 10
52.97539507274301
 20
186.6063132328138
 30
0.0
 10
52.97539507274301
 20
185.9827991232208
 30
0.0
 10
52.97539507274301
 20
185.9827991232208
 30
0.0
 10
52.97539507274301
 20
185.9827991232208
 30
0.0
 10
50.98061374326336
 20
185.9830567736795
 30
0.0
 10
50.98061374326336
 20
185.9830567736795
 30
0.0
 10
50.98061374326336
 20
185.9830567736795
 30
0.0
 10
50.9865397036593
 20
195.0757991049377
 30
0.0
 10
50.9865397036593
 20
195.0757991049377
 30
0.0
  0
SPLINE
  5
99
330
70
100
AcDbEntity
  8
moji
 62
    18
420
        0
370
    18
100
AcDbSpline
210
0.0
220
0.0
230
1.0
 70
     9
 71
     3
 72
    17
 73
    13
 74
     0
 42
0.0000000001
 43
0.0000000001
 40
0.0
 40
0.0
 40
0.0
 40
0.0
 40
1.0
 40
1.0
 40
1.0
 40
2.0
 40
2.0
 40
2.0
 40
3.0
 40
3.0
 40
3.0
 40
4.0
 40
4.0
 40
4.0
 40
4.0
 10
52.91059598406486
 20
188.786525647675
 30
0.0
 10
52.91059598406486
 20
188.0739417745756
 30
0.0
 10
53.3809884142823
 20
187.5259450143719
 30
0.0
 10
54.19320716677964
 20
187.5259450143719
 30
0.0
 10
55.00274490741655
 20
187.5244248766667
 30
0.0
 10
55.47426951156193
 20
188.0724474019159
 30
0.0
 10
55.47426951156193
 20
188.7852631604284
 30
0.0
 10
55.47465598724006
 20
189.4751737931795
 30
0.0
 10
55.00364519593748
 20
190.0564074625311
 30
0.0
 10
54.19320716677964
 20
190.057412299319
 30
0.0
 10
53.38250855194932
 20
190.057412299319
 30
0.0
 10
52.91124011019486
 20
189.4766939308844
 30
0.0
 10
52.91059598406486
 20
188.786525647675
 30
0.0
  0
SPLINE
  5
9A
330
70
100
AcDbEntity
  8
moji
 62
    18
420
        0
370
    18
100
AcDbSpline
210
0.0
220
0.0
230
1.0
 70
    11
 71
     3
 72
    32
 73
    28
 74
     0
 42
0.0000000001
 43
0.0000000001
 40
0.0
 40
0.0
 40
0.0
 40
0.0
 40
1.0
 40
1.0
 40
1.0
 40
2.0
 40
2.0
 40
2.0
 40
3.0
 40
3.0
 40
3.0
 40
4.0
 40
4.0
 40
4.0
 40
5.0
 40
5.0
 40
5.0
 40
6.0
 40
6.0
 40
6.0
 40
7.0
 40
7.0
 40
7.0
 40
8.0
 40
8.0
 40
8.0
 40
9.0
 40
9.0
 40
9.0
 40
9.0
 10
64.29415978444971
 20
188.449853793541
 30
0.0
 10
64.29415978444971
 20
188.449853793541
 30
0.0
 10
60.09765228244306
 20
188.4533836048224
 30
0.0
 10
60.09765228244306
 20
188.4533836048224
 30
0.0
 10
60.09765228244306
 20
187.6424287866637
 30
0.0
 10
60.52463061149862
 20
187.204886778023
 30
0.0
 10
61.34650978833597
 20
187.2043714771061
 30
0.0
 10
61.77299858153265
 20
187.2043714771061
 30
0.0
 10
62.08034980572415
 20
187.3455381633234
 30
0.0
 10
62.299507280196
 20
187.7181780214657
 30
0.0
 10
62.299507280196
 20
187.7181780214657
 30
0.0
 10
64.21665852848787
 20
187.7156530469722
 30
0.0
 10
64.21665852848787
 20
187.7156530469722
 30
0.0
 10
63.89936199684898
 20
186.3919222862879
 30
0.0
 10
62.63777655862751
 20
185.7900765802556
 30
0.0
 10
61.35596555992417
 20
185.7900765802556
 30
0.0
 10
59.49289514150713
 20
185.7920862538322
 30
0.0
 10
58.10261330251154
 20
186.8448202622561
 30
0.0
 10
58.10413344017823
 20
188.7837430227233
 30
0.0
 10
58.10413344017823
 20
190.6569906813165
 30
0.0
 10
59.38733575132265
 20
191.7852162740837
 30
0.0
 10
61.2174526769286
 20
191.7834642509658
 30
0.0
 10
63.16794558804091
 20
191.7827170646364
 30
0.0
 10
64.29539650661934
 20
190.5762430276198
 30
0.0
 10
64.29415978444971
 20
188.6587052552085
 30
0.0
 10
64.29415978444971
 20
188.6587052552085
 30
0.0
 10
64.29415978444971
 20
188.449853793541
 30
0.0
 10
64.29415978444971
 20
188.449853793541
 30
0.0
  0
SPLINE
  5
9B
330
70
100
AcDbEntity
  8
moji
 62
    18
420
        0
370
    18
100
AcDbSpline
210
0.0
220
0.0
230
1.0
 70
     9
 71
     3
 72
    14
 73
    10
 74
     0
 42
0.0000000001
 43
0.0000000001
 40
0.0
 40
0.0
 40
0.0
 40
0.0
 40
1.0
 40
1.0
 40
1.0
 40
2.0
 40
2.0
 40
2.0
 40
3.0
 40
3.0
 40
3.0
 40
3.0
 10
62.4433019974575
 20
189.6027365351874
 30
0.0
 10
62.34467340443158
 20
190.1394224402626
 30
0.0
 10
61.85225186056786
 20
190.4906773103486
 30
0.0
 10
61.31443230706158
 20
190.4906773103486
 30
0.0
 10
60.73422925420121
 20
190.4916821471369
 30
0.0
 10
60.25250020409564
 20
190.1842278549975
 30
0.0
 10
60.13212591292083
 20
189.6047719738098
 30
0.0
 10
60.13212591292083
 20
189.6047719738098
 30
0.0
 10
62.4433019974575
 20
189.6027365351874
 30
0.0
 10
62.4433019974575
 20
189.6027365351874
 30
0.0
  0
INSERT
  5
9D
330
70
100
AcDbEntity
  8
moji
100
AcDbBlockReference
  2
Block_0
 10
0.0
 20
0.0
 30
0.0
  0
MTEXT
  5
A2
330
70
100
AcDbEntity
  8
moji
100
AcDbMText
 10
19.32449336098647
 20
23.76184094152862
 30
0.0
 40
0.2
 41
0.0
 46
0.0
 71
     7
 72
     1
  1
\C18;\c0;\FArial Unicode MS|b0|i0|c129;\H1.685837;\W1.000000;自動製氷器（アイスメーカー）およびディスペンサーが標準装備されています。
 73
     1
 44
1.0
  0
MTEXT
  5
A3
330
70
100
AcDbEntity
  8
moji
100
AcDbMText
 10
19.80817938415386
 20
20.47687241784085
 30
0.0
 40
0.2
 41
0.0
 46
0.0
 71
     7
 72
     1
  1
\C18;\c0;\FArial Unicode MS|b0|i0|c129;\H1.685837;\W1.000000;冬季凍結の恐れのない場所に据え付けてください。
 73
     1
 44
1.0
  0
MTEXT
  5
A4
330
70
100
AcDbEntity
  8
moji
100
AcDbMText
 10
19.85302752952161
 20
17.54379079168203
 30
0.0
 40
0.2
 41
0.0
 46
0.0
 71
     7
 72
     1
  1
\C18;\c0;\FArial Unicode MS|b0|i0|c129;\H1.685837;\W1.000000;凍結の恐れのある場合にやむを得ず据え付ける場合は、断熱材やヒーター
 73
     1
 44
1.0
  0
MTEXT
  5
A5
330
70
100
AcDbEntity
  8
moji
100
AcDbMText
 10
19.89327593412038
 20
14.58081085052485
 30
0.0
 40
0.2
 41
0.0
 46
0.0
 71
     7
 72
     1
  1
\C18;\c0;\FArial Unicode MS|b0|i0|c129;\H1.685837;\W1.000000;追加等凍結防止対策を施してください。また、水抜きも行ってください。
 73
     1
 44
1.0
  0
LWPOLYLINE
  5
A6
330
70
100
AcDbEntity
  8
moji
 62
    18
420
        0
370
    18
100
AcDbPolyline
 90
        5
 70
     0
 43
0.0
 10
100.1211855218584
 20
12.84120146897425
 10
18.68741130156736
 20
12.84120146897425
 10
18.68741130156736
 20
29.6392899425085
 10
100.1211855218584
 20
29.6392899425085
 10
100.1211855218584
 20
12.84120146897425
  0
MTEXT
  5
A7
330
70
100
AcDbEntity
  8
moji
100
AcDbMText
 10
116.4899502780878
 20
177.8769763077985
 30
0.0
 40
0.2
 41
0.0
 46
0.0
 71
     7
 72
     1
  1
\C18;\c0;\FArial Unicode MS|b0|i0|c129;\H2.755803;\W1.000000;上面図
 73
     1
 44
1.0
  0
CIRCLE
  5
A8
330
70
100
AcDbEntity
  8
moji
 62
    18
420
        0
370
    18
100
AcDbCircle
 10
122.208337258503
 20
179.2952979359269
 30
0.0
 40
7.067433593444535
  0
MTEXT
  5
A9
330
70
100
AcDbEntity
  8
moji
100
AcDbMText
 10
187.7454738571435
 20
177.9333574485993
 30
0.0
 40
0.2
 41
0.0
 46
0.0
 71
     7
 72
     1
  1
\C18;\c0;\FArial Unicode MS|b0|i0|c129;\H2.755803;\W1.000000;正面図
 73
     1
 44
1.0
  0
CIRCLE
  5
AA
330
70
100
AcDbEntity
  8
moji
 62
    18
420
        0
370
    18
100
AcDbCircle
 10
193.4798339590221
 20
179.2943437622638
 30
0.0
 40
7.067433593444575
  0
MTEXT
  5
AB
330
70
100
AcDbEntity
  8
moji
100
AcDbMText
 10
245.0613121267772
 20
177.8384450679807
 30
0.0
 40
0.2
 41
0.0
 46
0.0
 71
     7
 72
     1
  1
\C18;\c0;\FArial Unicode MS|b0|i0|c129;\H2.755803;\W1.000000;側面図
 73
     1
 44
1.0
  0
CIRCLE
  5
AC
330
70
100
AcDbEntity
  8
moji
 62
    18
420
        0
370
    18
100
AcDbCircle
 10
250.6838275420899
 20
179.2952979359269
 30
0.0
 40
7.067433593444575
  0
LINE
  5
AD
330
70
100
AcDbEntity
  8
moji
 62
    18
420
        0
370
    18
100
AcDbLine
 10
18.68741130156736
 20
35.15599527954656
 30
0.0
 11
81.9761169204154
 21
35.15599527954656
 31
0.0
  0
LINE
  5
AE
330
70
100
AcDbEntity
  8
moji
 62
    18
420
        0
370
    18
100
AcDbLine
 10
81.9761169204154
 20
35.15599527954656
 30
0.0
 11
81.9761169204154
 21
168.2195937975692
 31
0.0
  0
LINE
  5
AF
330
70
100
AcDbEntity
  8
moji
 62
    18
420
        0
370
    18
100
AcDbLine
 10
81.9761169204154
 20
168.2195937975692
 30
0.0
 11
18.68741130156736
 21
168.2195937975692
 31
0.0
  0
LINE
  5
B0
330
70
100
AcDbEntity
  8
moji
 62
    18
420
        0
370
    18
100
AcDbLine
 10
18.68741130156736
 20
184.0532219003852
 30
0.0
 11
18.68741130156736
 21
35.15599527954656
 31
0.0
  0
LINE
  5
B1
330
70
100
AcDbEntity
  8
moji
 62
    18
420
        0
370
    18
100
AcDbLine
 10
18.68741130156736
 20
160.263476912638
 30
0.0
 11
81.98420247650677
 21
160.263476912638
 31
0.0
  0
LINE
  5
B2
330
70
100
AcDbEntity
  8
moji
 62
    18
420
        0
370
    18
100
AcDbLine
 10
18.68741130156736
 20
47.10785336656976
 30
0.0
 11
81.98420247650677
 21
47.10785336656976
 31
0.0
  0
LINE
  5
B3
330
70
100
AcDbEntity
  8
moji
 62
    18
420
        0
370
    18
100
AcDbLine
 10
18.68741130156736
 20
156.2852426972128
 30
0.0
 11
81.98420247650677
 21
156.2852426972128
 31
0.0
  0
LINE
  5
B4
330
70
100
AcDbEntity
  8
moji
 62
    18
420
        0
370
    18
100
AcDbLine
 10
27.37941947418641
 20
148.328422720447
 30
0.0
 11
81.98420247650677
 21
148.328422720447
 31
0.0
  0
LINE
  5
B5
330
70
100
AcDbEntity
  8
moji
 62
    18
420
        0
370
    18
100
AcDbLine
 10
18.68741130156736
 20
144.3503642779811
 30
0.0
 11
81.98420247650677
 21
144.3503642779811
 31
0.0
  0
LINE
  5
B6
330
70
100
AcDbEntity
  8
moji
 62
    18
420
        0
370
    18
100
AcDbLine
 10
18.68741130156736
 20
160.2784176141105
 30
0.0
 11
81.98420247650677
 21
160.2784176141105
 31
0.0
  0
LINE
  5
B7
330
70
100
AcDbEntity
  8
moji
 62
    18
420
        0
370
    18
100
AcDbLine
 10
27.37941947418641
 20
136.3942507085615
 30
0.0
 11
81.98420247650677
 21
136.3942507085615
 31
0.0
  0
LINE
  5
B8
330
70
100
AcDbEntity
  8
moji
 62
    18
420
        0
370
    18
100
AcDbLine
 10
27.37941947418641
 20
128.4377438076093
 30
0.0
 11
81.98420247650677
 21
128.4377438076093
 31
0.0
  0
LINE
  5
B9
330
70
100
AcDbEntity
  8
moji
 62
    18
420
        0
370
    18
100
AcDbLine
 10
18.68741130156736
 20
124.4595095921842
 30
0.0
 11
81.98420247650677
 21
124.4595095921842
 31
0.0
  0
LINE
  5
BA
330
70
100
AcDbEntity
  8
moji
 62
    18
420
        0
370
    18
100
AcDbLine
 10
27.37941947418641
 20
120.481626922678
 30
0.0
 11
81.98420247650677
 21
120.481626922678
 31
0.0
  0
LINE
  5
BB
330
70
100
AcDbEntity
  8
moji
 62
    18
420
        0
370
    18
100
AcDbLine
 10
27.37941947418641
 20
116.5033927072529
 30
0.0
 11
81.98420247650677
 21
116.5033927072529
 31
0.0
  0
LINE
  5
BC
330
70
100
AcDbEntity
  8
moji
 62
    18
420
        0
370
    18
100
AcDbLine
 10
23.02541771806251
 20
108.5469242764058
 30
0.0
 11
81.98420247650677
 21
108.5469242764058
 31
0.0
  0
LINE
  5
BD
330
70
100
AcDbEntity
  8
moji
 62
    18
420
        0
370
    18
100
AcDbLine
 10
18.68741130156736
 20
86.88987912948887
 30
0.0
 11
81.98420247650677
 21
86.88987912948887
 31
0.0
  0
LINE
  5
BE
330
70
100
AcDbEntity
  8
moji
 62
    18
420
        0
370
    18
100
AcDbLine
 10
18.68741130156736
 20
82.91164702361724
 30
0.0
 11
81.98420247650677
 21
82.91164702361724
 31
0.0
  0
LINE
  5
BF
330
70
100
AcDbEntity
  8
moji
 62
    18
420
        0
370
    18
100
AcDbLine
 10
27.37941947418641
 20
78.93305915272276
 30
0.0
 11
81.98420247650677
 21
78.93305915272276
 31
0.0
  0
LINE
  5
C0
330
70
100
AcDbEntity
  8
moji
 62
    18
420
        0
370
    18
100
AcDbLine
 10
27.37941947418641
 20
74.9558795750502
 30
0.0
 11
81.98420247650677
 21
74.9558795750502
 31
0.0
  0
LINE
  5
C1
330
70
100
AcDbEntity
  8
moji
 62
    18
420
        0
370
    18
100
AcDbLine
 10
27.37941947418641
 20
66.9990595982841
 30
0.0
 11
81.98420247650677
 21
66.9990595982841
 31
0.0
  0
LINE
  5
C2
330
70
100
AcDbEntity
  8
moji
 62
    18
420
        0
370
    18
100
AcDbLine
 10
27.37941947418641
 20
59.04290755876036
 30
0.0
 11
81.98420247650677
 21
59.04290755876036
 31
0.0
  0
LINE
  5
C3
330
70
100
AcDbEntity
  8
moji
 62
    18
420
        0
370
    18
100
AcDbLine
 10
18.68741130156736
 20
63.02082698992875
 30
0.0
 11
81.98420247650677
 21
63.02082698992875
 31
0.0
  0
LINE
  5
C4
330
70
100
AcDbEntity
  8
moji
 62
    18
420
        0
370
    18
100
AcDbLine
 10
18.68741130156736
 20
55.0643217974194
 30
0.0
 11
81.98420247650677
 21
55.0643217974194
 31
0.0
  0
LINE
  5
C5
330
70
100
AcDbEntity
  8
moji
 62
    18
420
        0
370
    18
100
AcDbLine
 10
18.68741130156736
 20
51.086439127912
 30
0.0
 11
81.98420247650677
 21
51.086439127912
 31
0.0
  0
LINE
  5
C6
330
70
100
AcDbEntity
  8
moji
 62
    18
420
        0
370
    18
100
AcDbLine
 10
18.68741130156736
 20
47.10785336656976
 30
0.0
 11
81.98420247650677
 21
47.10785336656976
 31
0.0
  0
LINE
  5
C7
330
70
100
AcDbEntity
  8
moji
 62
    18
420
        0
370
    18
100
AcDbLine
 10
18.68741130156736
 20
43.1296191511459
 30
0.0
 11
81.98420247650677
 21
43.1296191511459
 31
0.0
  0
LINE
  5
C8
330
70
100
AcDbEntity
  8
moji
 62
    18
420
        0
370
    18
100
AcDbLine
 10
44.73045979424203
 20
160.2784176141105
 30
0.0
 11
44.73045979424203
 21
43.12930386438682
 31
0.0
  0
LINE
  5
C9
330
70
100
AcDbEntity
  8
moji
 62
    18
420
        0
370
    18
100
AcDbLine
 10
18.68741130156736
 20
140.3721300625575
 30
0.0
 11
81.98420247650677
 21
140.3721300625575
 31
0.0
  0
LINE
  5
CA
330
70
100
AcDbEntity
  8
moji
 62
    18
420
        0
370
    18
100
AcDbLine
 10
18.68741130156736
 20
96.61320595869838
 30
0.0
 11
81.98420247650677
 21
96.61320595869838
 31
0.0
  0
LINE
  5
CB
330
70
100
AcDbEntity
  8
moji
 62
    18
420
        0
370
    18
100
AcDbLine
 10
18.68741130156736
 20
70.97694226779022
 30
0.0
 11
81.98420247650677
 21
70.97694226779022
 31
0.0
  0
LINE
  5
CC
330
70
100
AcDbEntity
  8
moji
 62
    18
420
        0
370
    18
100
AcDbLine
 10
36.05476436991735
 20
104.5690416068981
 30
0.0
 11
81.98420247650677
 21
104.5690416068981
 31
0.0
  0
MTEXT
  5
CD
330
70
100
AcDbEntity
  8
moji
100
AcDbMText
 10
54.8661008485746
 20
84.01733612503246
 30
0.0
 40
0.2
 41
0.0
 46
0.0
 71
     7
 72
     1
  1
\C18;\c0;\FArial Unicode MS|b0|i0|c129;\H1.766858;\W1.000000;冷気循環方式（間接冷却）
 73
     1
 44
1.0
  0
MTEXT
  5
CE
330
70
100
AcDbEntity
  8
moji
100
AcDbMText
 10
62.22801151839211
 20
80.03910134751683
 30
0.0
 40
0.2
 41
0.0
 46
0.0
 71
     7
 72
     1
  1
\C18;\c0;\FArial Unicode MS|b0|i0|c129;\H1.766858;\W1.000000;強制
 73
     1
 44
1.0
  0
MTEXT
  5
CF
330
70
100
AcDbEntity
  8
moji
100
AcDbMText
 10
57.07467081974283
 20
76.06051129452925
 30
0.0
 40
0.2
 41
0.0
 46
0.0
 71
     7
 72
     1
  1
\C18;\c0;\FArial Unicode MS|b0|i0|c129;\H1.766858;\W1.000000;自動開始・自動終了
 73
     1
 44
1.0
  0
MTEXT
  5
D0
330
70
100
AcDbEntity
  8
moji
100
AcDbMText
 10
62.22801151839211
 20
72.08333696046766
 30
0.0
 40
0.2
 41
0.0
 46
0.0
 71
     7
 72
     1
  1
\C18;\c0;\FArial Unicode MS|b0|i0|c129;\H1.766858;\W1.000000;強制
 73
     1
 44
1.0
  0
MTEXT
  5
D1
330
70
100
AcDbEntity
  8
moji
100
AcDbMText
 10
59.99076651027086
 20
153.8679551481649
 30
0.0
 40
0.2
 41
0.0
 46
0.0
 71
     7
 72
     1
  1
\C18;\c0;\FArial Unicode MS|b0|i0|c129;\H1.766858;\W1.000000;本体：鋼板
 73
     1
 44
1.0
  0
MTEXT
  5
D2
330
70
100
AcDbEntity
  8
moji
100
AcDbMText
 10
53.01167592736666
 20
151.368258459608
 30
0.0
 40
0.2
 41
0.0
 46
0.0
 71
     7
 72
     1
  1
\C18;\c0;\FArial Unicode MS|b0|i0|c129;\H1.766858;\W0.800000;（エナメル焼付け／チャコールグレー）
 73
     1
 44
1.0
  0
INSERT
  5
D4
330
70
100
AcDbEntity
  8
moji
100
AcDbBlockReference
  2
Block_1
 10
0.0
 20
0.0
 30
0.0
  0
MTEXT
  5
D9
330
70
100
AcDbEntity
  8
moji
100
AcDbMText
 10
56.54677991513034
 20
157.3617233730673
 30
0.0
 40
0.2
 41
0.0
 46
0.0
 71
     7
 72
     1
  1
\C18;\c0;\FKozGoPr6N-Regular|b0|i0|c128;\H1.998133;\W1.000000;IWO19JSSS
 73
     1
 44
1.0
  0
MTEXT
  5
DA
330
70
100
AcDbEntity
  8
moji
100
AcDbMText
 10
60.89882370168067
 20
131.5325721411891
 30
0.0
 40
0.2
 41
0.0
 46
0.0
 71
     7
 72
     1
  1
\C18;\c0;\FKozGoPr6N-Regular|b0|i0|c128;\H1.766858;\W1.000000;1160
 73
     1
 44
1.0
  0
MTEXT
  5
DB
330
70
100
AcDbEntity
  8
moji
100
AcDbMText
 10
61.05414367844849
 20
121.5871413032892
 30
0.0
 40
0.2
 41
0.0
 46
0.0
 71
     7
 72
     1
  1
\C18;\c0;\FKozGoPr6N-Regular|b0|i0|c128;\H1.766858;\W1.000000;527
 73
     1
 44
1.0
  0
MTEXT
  5
DC
330
70
100
AcDbEntity
  8
moji
100
AcDbMText
 10
61.34862398097361
 20
117.6092510353221
 30
0.0
 40
0.2
 41
0.0
 46
0.0
 71
     7
 72
     1
  1
\C18;\c0;\FKozGoPr6N-Regular|b0|i0|c128;\H1.766858;\W1.000000;142
 73
     1
 44
1.0
  0
MTEXT
  5
DD
330
70
100
AcDbEntity
  8
moji
100
AcDbMText
 10
61.49585874927447
 20
105.6745574686985
 30
0.0
 40
0.2
 41
0.0
 46
0.0
 71
     7
 72
     1
  1
\C18;\c0;\FKozGoPr6N-Regular|b0|i0|c128;\H1.766858;\W1.000000;140
 73
     1
 44
1.0
  0
MTEXT
  5
DE
330
70
100
AcDbEntity
  8
moji
100
AcDbMText
 10
61.49585874927447
 20
101.6966672007314
 30
0.0
 40
0.2
 41
0.0
 46
0.0
 71
     7
 72
     1
  1
\C18;\c0;\FKozGoPr6N-Regular|b0|i0|c128;\H1.766858;\W1.000000;150
 73
     1
 44
1.0
  0
MTEXT
  5
DF
330
70
100
AcDbEntity
  8
moji
100
AcDbMText
 10
61.05414367844849
 20
113.6310270237298
 30
0.0
 40
0.2
 41
0.0
 46
0.0
 71
     7
 72
     1
  1
\C18;\c0;\FKozGoPr6N-Regular|b0|i0|c128;\H1.766858;\W1.000000;385
 73
     1
 44
1.0
  0
INSERT
  5
E1
330
70
100
AcDbEntity
  8
moji
100
AcDbBlockReference
  2
Block_2
 10
0.0
 20
0.0
 30
0.0
  0
INSERT
  5
E7
330
70
100
AcDbEntity
  8
moji
100
AcDbBlockReference
  2
Block_3
 10
0.0
 20
0.0
 30
0.0
  0
MTEXT
  5
EF
330
70
100
AcDbEntity
  8
moji
100
AcDbMText
 10
55.31185852363406
 20
125.5653760808048
 30
0.0
 40
0.2
 41
0.0
 46
0.0
 71
     7
 72
     1
  1
\C18;\c0;\FKozGoPr6N-Regular|b0|i0|c128;\H1.766858;\W1.000000;670 x 1755
 73
     1
 44
1.0
  0
LINE
  5
F0
330
70
100
AcDbEntity
  8
moji
 62
    18
420
        0
370
    18
100
AcDbLine
 10
18.68741130156736
 20
112.385102598487
 30
0.0
 11
81.9761169204154
 21
112.385102598487
 31
0.0
  0
MTEXT
  5
F1
330
70
100
AcDbEntity
  8
moji
100
AcDbMText
 10
59.87623861723309
 20
141.4779060857785
 30
0.0
 40
0.2
 41
0.0
 46
0.0
 71
     7
 72
     1
  1
\C18;\c0;\FKozGoPr6N-Regular|b0|i0|c128;\H1.766858;\W1.000000;115kg
 73
     1
 44
1.0
  0
INSERT
  5
F3
330
70
100
AcDbEntity
  8
moji
100
AcDbBlockReference
  2
Block_4
 10
0.0
 20
0.0
 30
0.0
  0
INSERT
  5
FF
330
70
100
AcDbEntity
  8
moji
100
AcDbBlockReference
  2
Block_5
 10
0.0
 20
0.0
 30
0.0
  0
INSERT
  5
106
330
70
100
AcDbEntity
  8
moji
100
AcDbBlockReference
  2
Block_6
 10
0.0
 20
0.0
 30
0.0
  0
MTEXT
  5
110
330
70
100
AcDbEntity
  8
moji
100
AcDbMText
 10
64.98494918046329
 20
163.3660726350753
 30
0.0
 40
0.2
 41
0.0
 46
0.0
 71
     7
 72
     1
  1
\C18;\c0;\FArial Unicode MS|b0|i0|c129;\H1.766858;\W1.000000;様
 73
     1
 44
1.0
  0
MTEXT
  5
111
330
70
100
AcDbEntity
  8
moji
100
AcDbMText
 10
32.5881809577004
 20
163.3054281886115
 30
0.0
 40
0.2
 41
0.0
 46
0.0
 71
     7
 72
     1
  1
\C18;\c0;\FArial Unicode MS|b0|i0|c129;\H1.766858;\W1.000000;仕
 73
     1
 44
1.0
  0
LINE
  5
112
330
70
100
AcDbEntity
  8
moji
 62
    18
420
        0
370
    18
100
AcDbLine
 10
27.37941947418641
 20
156.2852426972128
 30
0.0
 11
27.37941947418641
 21
144.3398917258911
 31
0.0
  0
LINE
  5
113
330
70
100
AcDbEntity
  8
moji
 62
    18
420
        0
370
    18
100
AcDbLine
 10
27.37941947418641
 20
140.3721300625575
 30
0.0
 11
27.37941947418641
 21
112.53116992701
 31
0.0
  0
MTEXT
  5
114
330
70
100
AcDbEntity
  8
moji
100
AcDbMText
 10
19.74752686324752
 20
149.4343756408098
 30
0.0
 40
0.2
 41
0.0
 46
0.0
 71
     7
 72
     1
  1
\C18;\c0;\FArial Unicode MS|b0|i0|c129;\H1.766858;\W1.000000;材質
 73
     1
 44
1.0
  0
MTEXT
  5
115
330
70
100
AcDbEntity
  8
moji
100
AcDbMText
 10
21.85550946642944
 20
134.9463280234466
 30
0.0
 40
0.2
 41
0.0
 46
0.0
 71
     7
 72
     1
  1
\C18;\c0;\FArial Unicode MS|b0|i0|c129;\H1.766858;\W1.000000;外形
 73
     1
 44
1.0
  0
MTEXT
  5
116
330
70
100
AcDbEntity
  8
moji
100
AcDbMText
 10
21.85550946642944
 20
131.5836133839878
 30
0.0
 40
0.2
 41
0.0
 46
0.0
 71
     7
 72
     1
  1
\C18;\c0;\FArial Unicode MS|b0|i0|c129;\H1.766858;\W1.000000;寸法
 73
     1
 44
1.0
  0
MTEXT
  5
117
330
70
100
AcDbEntity
  8
moji
100
AcDbMText
 10
20.38312813991019
 20
128.4961726397238
 30
0.0
 40
0.2
 41
0.0
 46
0.0
 71
     7
 72
     1
  1
\C18;\c0;\FKozGoPr6N-Regular|b0|i0|c128;\H1.766858;\W1.000000;(mm)
 73
     1
 44
1.0
  0
MTEXT
  5
118
330
70
100
AcDbEntity
  8
moji
100
AcDbMText
 10
21.82111503267474
 20
120.6785834964417
 30
0.0
 40
0.2
 41
0.0
 46
0.0
 71
     7
 72
     1
  1
\C18;\c0;\FArial Unicode MS|b0|i0|c129;\H1.766858;\W1.000000;定格
 73
     1
 44
1.0
  0
MTEXT
  5
119
330
70
100
AcDbEntity
  8
moji
100
AcDbMText
 10
21.25719327395206
 20
117.6090787805478
 30
0.0
 40
0.2
 41
0.0
 46
0.0
 71
     7
 72
     1
  1
\C18;\c0;\FArial Unicode MS|b0|i0|c129;\H1.766858;\W0.910000;内容量
 73
     1
 44
1.0
  0
MTEXT
  5
11A
330
70
100
AcDbEntity
  8
moji
100
AcDbMText
 10
21.23216250206704
 20
114.3737896103497
 30
0.0
 40
0.2
 41
0.0
 46
0.0
 71
     7
 72
     1
  1
\C18;\c0;\FKozGoPr6N-Regular|b0|i0|c128;\H1.766858;\W1.000000;(L)
 73
     1
 44
1.0
  0
MTEXT
  5
11B
330
70
100
AcDbEntity
  8
moji
100
AcDbMText
 10
19.74752686324752
 20
141.4778199583914
 30
0.0
 40
0.2
 41
0.0
 46
0.0
 71
     7
 72
     1
  1
\C18;\c0;\FArial Unicode MS|b0|i0|c129;\H1.766858;\W1.000000;質量
 73
     1
 44
1.0
  0
MTEXT
  5
11C
330
70
100
AcDbEntity
  8
moji
100
AcDbMText
 10
36.5293863417113
 20
141.4778199583914
 30
0.0
 40
0.2
 41
0.0
 46
0.0
 71
     7
 72
     1
  1
\C18;\c0;\FKozGoPr6N-Regular|b0|i0|c128;\H1.766858;\W1.000000;(kg)
 73
     1
 44
1.0
  0
MTEXT
  5
11D
330
70
100
AcDbEntity
  8
moji
100
AcDbMText
 10
28.46292673035172
 20
151.4234015192188
 30
0.0
 40
0.2
 41
0.0
 46
0.0
 71
     7
 72
     1
  1
\C18;\c0;\FArial Unicode MS|b0|i0|c129;\H1.766858;\W1.000000;外装
 73
     1
 44
1.0
  0
MTEXT
  5
11E
330
70
100
AcDbEntity
  8
moji
100
AcDbMText
 10
27.90947752360803
 20
137.49975743565
 30
0.0
 40
0.2
 41
0.0
 46
0.0
 71
     7
 72
     1
  1
\C18;\c0;\FArial Unicode MS|b0|i0|c129;\H1.766858;\W0.860000;幅・奥行・高さ
 73
     1
 44
1.0
  0
MTEXT
  5
11F
330
70
100
AcDbEntity
  8
moji
100
AcDbMText
 10
19.74752686324752
 20
157.3909313232282
 30
0.0
 40
0.2
 41
0.0
 46
0.0
 71
     7
 72
     1
  1
\C18;\c0;\FArial Unicode MS|b0|i0|c129;\H1.766858;\W1.000000;型式名
 73
     1
 44
1.0
  0
MTEXT
  5
120
330
70
100
AcDbEntity
  8
moji
100
AcDbMText
 10
27.90947752360803
 20
125.5651930601072
 30
0.0
 40
0.2
 41
0.0
 46
0.0
 71
     7
 72
     1
  1
\C18;\c0;\FArial Unicode MS|b0|i0|c129;\H1.766858;\W0.740000;搬入時最小幅高
 73
     1
 44
1.0
  0
MTEXT
  5
121
330
70
100
AcDbEntity
  8
moji
100
AcDbMText
 10
27.90947752360803
 20
133.1459641865486
 30
0.0
 40
0.2
 41
0.0
 46
0.0
 71
     7
 72
     1
  1
\C18;\c0;\FArial Unicode MS|b0|i0|c129;\H1.766858;\W0.900000;扉を開けた時の
 73
     1
 44
1.0
  0
MTEXT
  5
122
330
70
100
AcDbEntity
  8
moji
100
AcDbMText
 10
27.90947752360803
 20
129.9935403286941
 30
0.0
 40
0.2
 41
0.0
 46
0.0
 71
     7
 72
     1
  1
\C18;\c0;\FArial Unicode MS|b0|i0|c129;\H1.766858;\W1.000000;最大奥行
 73
     1
 44
1.0
  0
MTEXT
  5
123
330
70
100
AcDbEntity
  8
moji
100
AcDbMText
 10
28.33648096011966
 20
145.4559686085199
 30
0.0
 40
0.2
 41
0.0
 46
0.0
 71
     7
 72
     1
  1
\C18;\c0;\FArial Unicode MS|b0|i0|c129;\H1.766858;\W1.000000;内装
 73
     1
 44
1.0
  0
MTEXT
  5
124
330
70
100
AcDbEntity
  8
moji
100
AcDbMText
 10
27.90947752360803
 20
121.5869582825915
 30
0.0
 40
0.2
 41
0.0
 46
0.0
 71
     7
 72
     1
  1
\C18;\c0;\FArial Unicode MS|b0|i0|c129;\H1.766858;\W1.000000;総内容積
 73
     1
 44
1.0
  0
MTEXT
  5
125
330
70
100
AcDbEntity
  8
moji
100
AcDbMText
 10
27.90947752360803
 20
117.6090787805478
 30
0.0
 40
0.2
 41
0.0
 46
0.0
 71
     7
 72
     1
  1
\C18;\c0;\FArial Unicode MS|b0|i0|c129;\H1.766858;\W1.000000;冷凍室
 73
     1
 44
1.0
  0
MTEXT
  5
126
330
70
100
AcDbEntity
  8
moji
100
AcDbMText
 10
27.90947752360803
 20
113.6308440030322
 30
0.0
 40
0.2
 41
0.0
 46
0.0
 71
     7
 72
     1
  1
\C18;\c0;\FArial Unicode MS|b0|i0|c129;\H1.766858;\W1.000000;冷蔵室
 73
     1
 44
1.0
  0
LINE
  5
127
330
70
100
AcDbEntity
  8
moji
 62
    18
420
        0
370
    18
100
AcDbLine
 10
23.02541771806251
 20
112.3851025984867
 30
0.0
 11
23.02541771806251
 21
96.61320595869838
 31
0.0
  0
LINE
  5
128
330
70
100
AcDbEntity
  8
moji
 62
    18
420
        0
370
    18
100
AcDbLine
 10
36.05476436991735
 20
108.5180975112085
 30
0.0
 11
36.05476436991735
 21
96.61320595869838
 31
0.0
  0
MTEXT
  5
129
330
70
100
AcDbEntity
  8
moji
100
AcDbMText
 10
19.63175416031762
 20
107.5538247581321
 30
0.0
 40
0.2
 41
0.0
 46
0.0
 71
     7
 72
     1
  1
\C18;\c0;\FArial Unicode MS|b0|i0|c129;\H1.766858;\W1.041670;電
 73
     1
 44
1.0
  0
MTEXT
  5
12A
330
70
100
AcDbEntity
  8
moji
100
AcDbMText
 10
19.62137715590873
 20
104.8270639793271
 30
0.0
 40
0.2
 41
0.0
 46
0.0
 71
     7
 72
     1
  1
\C18;\c0;\FArial Unicode MS|b0|i0|c129;\H1.766858;\W1.041670;気
 73
     1
 44
1.0
  0
MTEXT
  5
12B
330
70
100
AcDbEntity
  8
moji
100
AcDbMText
 10
19.66288382780387
 20
102.1102724455824
 30
0.0
 40
0.2
 41
0.0
 46
0.0
 71
     7
 72
     1
  1
\C18;\c0;\FArial Unicode MS|b0|i0|c129;\H1.766858;\W1.041670;定
 73
     1
 44
1.0
  0
MTEXT
  5
12C
330
70
100
AcDbEntity
  8
moji
100
AcDbMText
 10
19.70439049969901
 20
99.46321179764396
 30
0.0
 40
0.2
 41
0.0
 46
0.0
 71
     7
 72
     1
  1
\C18;\c0;\FArial Unicode MS|b0|i0|c129;\H1.766858;\W1.041670;格
 73
     1
 44
1.0
  0
MTEXT
  5
12D
330
70
100
AcDbEntity
  8
moji
100
AcDbMText
 10
23.77788755034351
 20
109.5125553281177
 30
0.0
 40
0.2
 41
0.0
 46
0.0
 71
     7
 72
     1
  1
\C18;\c0;\FArial Unicode MS|b0|i0|c129;\H1.766858;\W0.960000;相・電圧・周波数
 73
     1
 44
1.0
  0
MTEXT
  5
12E
330
70
100
AcDbEntity
  8
moji
100
AcDbMText
 10
19.74752686324752
 20
84.01733074207076
 30
0.0
 40
0.2
 41
0.0
 46
0.0
 71
     7
 72
     1
  1
\C18;\c0;\FArial Unicode MS|b0|i0|c129;\H1.766858;\W1.000000;冷却方法
 73
     1
 44
1.0
  0
MTEXT
  5
12F
330
70
100
AcDbEntity
  8
moji
100
AcDbMText
 10
38.27238126433734
 20
105.8510647827006
 30
0.0
 40
0.2
 41
0.0
 46
0.0
 71
     7
 72
     1
  1
\C18;\c0;\FArial Unicode MS|b0|i0|c129;\H1.413487;\W1.000000;電動装置
 73
     1
 44
1.0
  0
MTEXT
  5
130
330
70
100
AcDbEntity
  8
moji
100
AcDbMText
 10
38.27238126433734
 20
101.8731852806569
 30
0.0
 40
0.2
 41
0.0
 46
0.0
 71
     7
 72
     1
  1
\C18;\c0;\FArial Unicode MS|b0|i0|c129;\H1.413487;\W1.000000;電熱装置
 73
     1
 44
1.0
  0
MTEXT
  5
131
330
70
100
AcDbEntity
  8
moji
100
AcDbMText
 10
27.17687796866965
 20
103.000538948588
 30
0.0
 40
0.2
 41
0.0
 46
0.0
 71
     7
 72
     1
  1
\C18;\c0;\FArial Unicode MS|b0|i0|c129;\H1.766858;\W1.000000;消費電力
 73
     1
 44
1.0
  0
MTEXT
  5
132
330
70
100
AcDbEntity
  8
moji
100
AcDbMText
 10
27.76583049927735
 20
100.1028691359443
 30
0.0
 40
0.2
 41
0.0
 46
0.0
 71
     7
 72
     1
  1
\C18;\c0;\FKozGoPr6N-Regular|b0|i0|c128;\H1.766858;\W1.000000;(W)
 73
     1
 44
1.0
  0
LINE
  5
133
330
70
100
AcDbEntity
  8
moji
 62
    18
420
        0
370
    18
100
AcDbLine
 10
27.37941947418641
 20
82.91266439722383
 30
0.0
 11
27.37941947418641
 21
55.06537643517006
 31
0.0
  0
LINE
  5
134
330
70
100
AcDbEntity
  8
moji
 62
    18
420
        0
370
    18
100
AcDbLine
 10
27.37941947418641
 20
43.12104143077137
 30
0.0
 11
27.37941947418641
 21
35.15599527954656
 31
0.0
  0
MTEXT
  5
135
330
70
100
AcDbEntity
  8
moji
100
AcDbMText
 10
21.79027469937963
 20
59.53642301130676
 30
0.0
 40
0.2
 41
0.0
 46
0.0
 71
     7
 72
     1
  1
\C18;\c0;\FArial Unicode MS|b0|i0|c129;\H1.766858;\W1.000000;設置
 73
     1
 44
1.0
  0
MTEXT
  5
136
330
70
100
AcDbEntity
  8
moji
100
AcDbMText
 10
21.79027469937963
 20
56.86322270137393
 30
0.0
 40
0.2
 41
0.0
 46
0.0
 71
     7
 72
     1
  1
\C18;\c0;\FArial Unicode MS|b0|i0|c129;\H1.766858;\W1.000000;方式
 73
     1
 44
1.0
  0
MTEXT
  5
137
330
70
100
AcDbEntity
  8
moji
100
AcDbMText
 10
19.74752686324752
 20
40.25707385858129
 30
0.0
 40
0.2
 41
0.0
 46
0.0
 71
     7
 72
     1
  1
\C18;\c0;\FArial Unicode MS|b0|i0|c129;\H1.766858;\W1.000000;備考
 73
     1
 44
1.0
  0
MTEXT
  5
138
330
70
100
AcDbEntity
  8
moji
100
AcDbMText
 10
21.22009121046443
 20
77.50029744224059
 30
0.0
 40
0.2
 41
0.0
 46
0.0
 71
     7
 72
     1
  1
\C18;\c0;\FArial Unicode MS|b0|i0|c129;\H1.766858;\W0.850000;冷却時
 73
     1
 44
1.0
  0
MTEXT
  5
139
330
70
100
AcDbEntity
  8
moji
100
AcDbMText
 10
21.22009121046443
 20
74.57701011488712
 30
0.0
 40
0.2
 41
0.0
 46
0.0
 71
     7
 72
     1
  1
\C18;\c0;\FArial Unicode MS|b0|i0|c129;\H1.766858;\W0.850000;の霜取
 73
     1
 44
1.0
  0
MTEXT
  5
13A
330
70
100
AcDbEntity
  8
moji
100
AcDbMText
 10
21.62977900494141
 20
67.49357620247339
 30
0.0
 40
0.2
 41
0.0
 46
0.0
 71
     7
 72
     1
  1
\C18;\c0;\FArial Unicode MS|b0|i0|c129;\H1.766858;\W0.750000;アイス
 73
     1
 44
1.0
  0
MTEXT
  5
13B
330
70
100
AcDbEntity
  8
moji
100
AcDbMText
 10
21.36916695166522
 20
64.84048125447401
 30
0.0
 40
0.2
 41
0.0
 46
0.0
 71
     7
 72
     1
  1
\C18;\c0;\FArial Unicode MS|b0|i0|c129;\H1.766858;\W0.640000;メーカー
 73
     1
 44
1.0
  0
MTEXT
  5
13C
330
70
100
AcDbEntity
  8
moji
100
AcDbMText
 10
19.74752686324752
 20
52.19177549964737
 30
0.0
 40
0.2
 41
0.0
 46
0.0
 71
     7
 72
     1
  1
\C18;\c0;\FArial Unicode MS|b0|i0|c129;\H1.766858;\W1.000000;霜付防止方法
 73
     1
 44
1.0
  0
MTEXT
  5
13D
330
70
100
AcDbEntity
  8
moji
100
AcDbMText
 10
19.74752686324752
 20
44.23530594461609
 30
0.0
 40
0.2
 41
0.0
 46
0.0
 71
     7
 72
     1
  1
\C18;\c0;\FArial Unicode MS|b0|i0|c129;\H1.766858;\W1.000000;断熱材
 73
     1
 44
1.0
  0
MTEXT
  5
13E
330
70
100
AcDbEntity
  8
moji
100
AcDbMText
 10
27.90947752360803
 20
80.03910134751683
 30
0.0
 40
0.2
 41
0.0
 46
0.0
 71
     7
 72
     1
  1
\C18;\c0;\FArial Unicode MS|b0|i0|c129;\H1.766858;\W1.000000;方式
 73
     1
 44
1.0
  0
MTEXT
  5
13F
330
70
100
AcDbEntity
  8
moji
100
AcDbMText
 10
27.90947752360803
 20
76.06051129452925
 30
0.0
 40
0.2
 41
0.0
 46
0.0
 71
     7
 72
     1
  1
\C18;\c0;\FArial Unicode MS|b0|i0|c129;\H1.766858;\W1.000000;操作
 73
     1
 44
1.0
  0
MTEXT
  5
140
330
70
100
AcDbEntity
  8
moji
100
AcDbMText
 10
27.90947752360803
 20
72.08333157750598
 30
0.0
 40
0.2
 41
0.0
 46
0.0
 71
     7
 72
     1
  1
\C18;\c0;\FArial Unicode MS|b0|i0|c129;\H1.766858;\W1.000000;蒸発
 73
     1
 44
1.0
  0
MTEXT
  5
141
330
70
100
AcDbEntity
  8
moji
100
AcDbMText
 10
27.90947752360803
 20
68.10439701496989
 30
0.0
 40
0.2
 41
0.0
 46
0.0
 71
     7
 72
     1
  1
\C18;\c0;\FArial Unicode MS|b0|i0|c129;\H1.766858;\W1.000000;設備
 73
     1
 44
1.0
  0
MTEXT
  5
142
330
70
100
AcDbEntity
  8
moji
100
AcDbMText
 10
27.90947752360803
 20
60.14828273541052
 30
0.0
 40
0.2
 41
0.0
 46
0.0
 71
     7
 72
     1
  1
\C18;\c0;\FArial Unicode MS|b0|i0|c129;\H1.766858;\W1.000000;ビルト・イン
 73
     1
 44
1.0
  0
MTEXT
  5
143
330
70
100
AcDbEntity
  8
moji
100
AcDbMText
 10
27.90947752360803
 20
56.17036016967323
 30
0.0
 40
0.2
 41
0.0
 46
0.0
 71
     7
 72
     1
  1
\C18;\c0;\FArial Unicode MS|b0|i0|c129;\H1.766858;\W0.750000;ローラーキャスター
 73
     1
 44
1.0
  0
MTEXT
  5
144
330
70
100
AcDbEntity
  8
moji
100
AcDbMText
 10
27.90947752360803
 20
64.12651212996447
 30
0.0
 40
0.2
 41
0.0
 46
0.0
 71
     7
 72
     1
  1
\C18;\c0;\FArial Unicode MS|b0|i0|c129;\H1.766858;\W1.000000;接続口管径
 73
     1
 44
1.0
  0
MTEXT
  5
145
330
70
100
AcDbEntity
  8
moji
100
AcDbMText
 10
19.74752686324752
 20
48.21389061464195
 30
0.0
 40
0.2
 41
0.0
 46
0.0
 71
     7
 72
     1
  1
\C18;\c0;\FArial Unicode MS|b0|i0|c129;\H1.766858;\W1.000000;ド　ア　閉　鎖
 73
     1
 44
1.0
  0
MTEXT
  5
146
330
70
100
AcDbEntity
  8
moji
100
AcDbMText
 10
62.91965750074957
 20
60.14828273541052
 30
0.0
 40
0.2
 41
0.0
 46
0.0
 71
     7
 72
     1
  1
\C18;\c0;\FArial Unicode MS|b0|i0|c129;\H1.766858;\W1.000000;可
 73
     1
 44
1.0
  0
MTEXT
  5
147
330
70
100
AcDbEntity
  8
moji
100
AcDbMText
 10
55.55774683093208
 20
56.17036016967323
 30
0.0
 40
0.2
 41
0.0
 46
0.0
 71
     7
 72
     1
  1
\C18;\c0;\FArial Unicode MS|b0|i0|c129;\H1.766858;\W1.000000;付（アジャスター付き）
 73
     1
 44
1.0
  0
MTEXT
  5
148
330
70
100
AcDbEntity
  8
moji
100
AcDbMText
 10
55.55774683093208
 20
52.19177549964737
 30
0.0
 40
0.2
 41
0.0
 46
0.0
 71
     7
 72
     1
  1
\C18;\c0;\FArial Unicode MS|b0|i0|c129;\H1.766858;\W1.000000;コンデンサー・ループ式
 73
     1
 44
1.0
  0
MTEXT
  5
149
330
70
100
AcDbEntity
  8
moji
100
AcDbMText
 10
55.55774683093208
 20
48.21389061464195
 30
0.0
 40
0.2
 41
0.0
 46
0.0
 71
     7
 72
     1
  1
\C18;\c0;\FArial Unicode MS|b0|i0|c129;\H1.766858;\W1.000000;マグネット・ガスケット
 73
     1
 44
1.0
  0
MTEXT
  5
14A
330
70
100
AcDbEntity
  8
moji
100
AcDbMText
 10
52.60709790927933
 20
44.23530594461609
 30
0.0
 40
0.2
 41
0.0
 46
0.0
 71
     7
 72
     1
  1
\C18;\c0;\FArial Unicode MS|b0|i0|c129;\H1.766858;\W0.880000;ウレタンフォーム（シクロペンタン）
 73
     1
 44
1.0
  0
MTEXT
  5
14B
330
70
100
AcDbEntity
  8
moji
100
AcDbMText
 10
28.81009007899269
 20
40.25707385858129
 30
0.0
 40
0.2
 41
0.0
 46
0.0
 71
     7
 72
     1
  1
\C18;\c0;\FArial Unicode MS|b0|i0|c129;\H1.766858;\W1.000000;純正の昇圧トランスを接続して使用すること。
 73
     1
 44
1.0
  0
LINE
  5
14C
330
70
100
AcDbEntity
  8
moji
 62
    18
420
        0
370
    18
100
AcDbLine
 10
107.3035589038235
 20
15.65272043216595
 30
0.0
 11
169.5067613995109
 21
15.65272043216595
 31
0.0
  0
LINE
  5
14D
330
70
100
AcDbEntity
  8
moji
 62
    18
420
        0
370
    18
100
AcDbLine
 10
169.5067613995109
 20
15.65272043216595
 30
0.0
 11
169.5067613995109
 21
57.60445197547675
 31
0.0
  0
LINE
  5
14E
330
70
100
AcDbEntity
  8
moji
 62
    18
420
        0
370
    18
100
AcDbLine
 10
169.5067613995109
 20
57.60445197547675
 30
0.0
 11
107.3035589038235
 21
57.60445197547675
 31
0.0
  0
LINE
  5
14F
330
70
100
AcDbEntity
  8
moji
 62
    18
420
        0
370
    18
100
AcDbLine
 10
107.3035589038235
 20
57.60445197547675
 30
0.0
 11
107.3035589038235
 21
15.65272043216595
 31
0.0
  0
LINE
  5
150
330
70
100
AcDbEntity
  8
moji
 62
    18
420
        0
370
    18
100
AcDbLine
 10
107.3035589038235
 20
50.3716759694144
 30
0.0
 11
169.5150227285615
 21
50.3716759694144
 31
0.0
  0
LINE
  5
151
330
70
100
AcDbEntity
  8
moji
 62
    18
420
        0
370
    18
100
AcDbLine
 10
107.3402954521527
 20
45.1636989816454
 30
0.0
 11
169.5150227285615
 21
45.1636989816454
 31
0.0
  0
LINE
  5
152
330
70
100
AcDbEntity
  8
moji
 62
    18
420
        0
370
    18
100
AcDbLine
 10
107.3402954521527
 20
39.95607353979283
 30
0.0
 11
169.5150227285615
 21
39.95607353979283
 31
0.0
  0
LINE
  5
153
330
70
100
AcDbEntity
  8
moji
 62
    18
420
        0
370
    18
100
AcDbLine
 10
107.3402954521527
 20
34.74813265390076
 30
0.0
 11
169.5150227285615
 21
34.74813265390076
 31
0.0
  0
LINE
  5
154
330
70
100
AcDbEntity
  8
moji
 62
    18
420
        0
370
    18
100
AcDbLine
 10
107.3402954521527
 20
29.5405070804922
 30
0.0
 11
169.5150227285615
 21
29.5405070804922
 31
0.0
  0
LINE
  5
155
330
70
100
AcDbEntity
  8
moji
 62
    18
420
        0
370
    18
100
AcDbLine
 10
107.3035589038235
 20
24.33256511575004
 30
0.0
 11
169.5150227285615
 21
24.33256511575004
 31
0.0
  0
LINE
  5
156
330
70
100
AcDbEntity
  8
moji
 62
    18
420
        0
370
    18
100
AcDbLine
 10
155.0415609333072
 20
50.38060523570796
 30
0.0
 11
155.0415609333072
 21
24.33734614034272
 31
0.0
  0
MTEXT
  5
157
330
70
100
AcDbEntity
  8
moji
100
AcDbMText
 10
129.2528878630589
 20
52.71042385902834
 30
0.0
 40
0.2
 41
0.0
 46
0.0
 71
     7
 72
     1
  1
\C18;\c0;\FArial Unicode MS|b0|i0|c129;\H2.555276;\W1.000000;アイスメーカー仕様
 73
     1
 44
1.0
  0
MTEXT
  5
158
330
70
100
AcDbEntity
  8
moji
100
AcDbMText
 10
109.0704203862795
 20
46.64766407966024
 30
0.0
 40
0.2
 41
0.0
 46
0.0
 71
     7
 72
     1
  1
\C18;\c0;\FArial Unicode MS|b0|i0|c129;\H2.240051;\W1.000000;水圧
 73
     1
 44
1.0
  0
MTEXT
  5
159
330
70
100
AcDbEntity
  8
moji
100
AcDbMText
 10
144.7445456248924
 20
46.74559091882847
 30
0.0
 40
0.2
 41
0.0
 46
0.0
 71
     7
 72
     1
  1
\C18;\c0;\FKozGoPr6N-Regular|b0|i0|c128;\H2.044196;\W1.000000;(MPa)
 73
     1
 44
1.0
  0
MTEXT
  5
15A
330
70
100
AcDbEntity
  8
moji
100
AcDbMText
 10
109.0704203862795
 20
41.43968631979958
 30
0.0
 40
0.2
 41
0.0
 46
0.0
 71
     7
 72
     1
  1
\C18;\c0;\FArial Unicode MS|b0|i0|c129;\H2.240051;\W1.000000;１回の使用水量
 73
     1
 44
1.0
  0
MTEXT
  5
15B
330
70
100
AcDbEntity
  8
moji
100
AcDbMText
 10
146.7887468606823
 20
41.53761315896781
 30
0.0
 40
0.2
 41
0.0
 46
0.0
 71
     7
 72
     1
  1
\C18;\c0;\FKozGoPr6N-Regular|b0|i0|c128;\H2.044196;\W1.000000;(cc)
 73
     1
 44
1.0
  0
MTEXT
  5
15C
330
70
100
AcDbEntity
  8
moji
100
AcDbMText
 10
109.0704203862795
 20
36.23209613318102
 30
0.0
 40
0.2
 41
0.0
 46
0.0
 71
     7
 72
     1
  1
\C18;\c0;\FArial Unicode MS|b0|i0|c129;\H2.240051;\W1.000000;１回にできる氷の量
 73
     1
 44
1.0
  0
MTEXT
  5
15D
330
70
100
AcDbEntity
  8
moji
100
AcDbMText
 10
148.8329373305489
 20
36.33002297234925
 30
0.0
 40
0.2
 41
0.0
 46
0.0
 71
     7
 72
     1
  1
\C18;\c0;\FKozGoPr6N-Regular|b0|i0|c128;\H2.044196;\W1.000000;(g)
 73
     1
 44
1.0
  0
INSERT
  5
15F
330
70
100
AcDbEntity
  8
moji
100
AcDbBlockReference
  2
Block_7
 10
0.0
 20
0.0
 30
0.0
  0
MTEXT
  5
164
330
70
100
AcDbEntity
  8
moji
100
AcDbMText
 10
146.7887468606823
 20
31.12204521248859
 30
0.0
 40
0.2
 41
0.0
 46
0.0
 71
     7
 72
     1
  1
\C18;\c0;\FKozGoPr6N-Regular|b0|i0|c128;\H2.044196;\W1.000000;(kg)
 73
     1
 44
1.0
  0
MTEXT
  5
165
330
70
100
AcDbEntity
  8
moji
100
AcDbMText
 10
109.0704203862795
 20
25.81649319745077
 30
0.0
 40
0.2
 41
0.0
 46
0.0
 71
     7
 72
     1
  1
\C18;\c0;\FArial Unicode MS|b0|i0|c129;\H2.240051;\W1.000000;氷の出来る時間
 73
     1
 44
1.0
  0
INSERT
  5
167
330
70
100
AcDbEntity
  8
moji
100
AcDbBlockReference
  2
Block_8
 10
0.0
 20
0.0
 30
0.0
  0
MTEXT
  5
16D
330
70
100
AcDbEntity
  8
moji
100
AcDbMText
 10
155.634653942618
 20
46.74559091882847
 30
0.0
 40
0.2
 41
0.0
 46
0.0
 71
     7
 72
     1
  1
\C18;\c0;\FKozGoPr6N-Regular|b0|i0|c128;\H2.044196;\W1.000000;0.15-0.60
 73
     1
 44
1.0
  0
MTEXT
  5
16E
330
70
100
AcDbEntity
  8
moji
100
AcDbMText
 10
157.3381567667635
 20
41.53761315896781
 30
0.0
 40
0.2
 41
0.0
 46
0.0
 71
     7
 72
     1
  1
\C18;\c0;\FKozGoPr6N-Regular|b0|i0|c128;\H2.044196;\W1.000000;90-100
 73
     1
 44
1.0
  0
MTEXT
  5
16F
330
70
100
AcDbEntity
  8
moji
100
AcDbMText
 10
157.3381567667635
 20
36.33448813907583
 30
0.0
 40
0.2
 41
0.0
 46
0.0
 71
     7
 72
     1
  1
\C18;\c0;\FKozGoPr6N-Regular|b0|i0|c128;\H2.044196;\W1.000000;90-100
 73
     1
 44
1.0
  0
MTEXT
  5
170
330
70
100
AcDbEntity
  8
moji
100
AcDbMText
 10
156.3160507659069
 20
31.12204521248859
 30
0.0
 40
0.2
 41
0.0
 46
0.0
 71
     7
 72
     1
  1
\C18;\c0;\FKozGoPr6N-Regular|b0|i0|c128;\H2.044196;\W1.000000;1.0-1.2 
 73
     1
 44
1.0
  0
MTEXT
  5
171
330
70
100
AcDbEntity
  8
moji
100
AcDbMText
 10
157.1678075609413
 20
25.914420036619
 30
0.0
 40
0.2
 41
0.0
 46
0.0
 71
     7
 72
     1
  1
\C18;\c0;\FKozGoPr6N-Regular|b0|i0|c128;\H2.044196;\W1.000000;90-120
 73
     1
 44
1.0
  0
MTEXT
  5
172
330
70
100
AcDbEntity
  8
moji
100
AcDbMText
 10
109.1262632309107
 20
21.01191862428736
 30
0.0
 40
0.2
 41
0.0
 46
0.0
 71
     7
 72
     1
  1
\C18;\c0;\FArial Unicode MS|b0|i0|c129;\H1.788680;\W1.000000;注
 73
     1
 44
1.0
  0
MTEXT
  5
173
330
70
100
AcDbEntity
  8
moji
100
AcDbMText
 10
111.6435622042126
 20
21.03007804556781
 30
0.0
 40
0.2
 41
0.0
 46
0.0
 71
     7
 72
     1
  1
\C18;\c0;\FKozGoPr6N-Regular|b0|i0|c128;\H1.788680;\W1.000000;)
 73
     1
 44
1.0
  0
INSERT
  5
175
330
70
100
AcDbEntity
  8
moji
100
AcDbBlockReference
  2
Block_9
 10
0.0
 20
0.0
 30
0.0
  0
MTEXT
  5
17B
330
70
100
AcDbEntity
  8
moji
100
AcDbMText
 10
112.9841888145274
 20
17.95821693819165
 30
0.0
 40
0.2
 41
0.0
 46
0.0
 71
     7
 72
     1
  1
\C18;\c0;\FArial Unicode MS|b0|i0|c129;\H1.788680;\W1.000000;になりませんと動作いたしません。
 73
     1
 44
1.0
  0
MTEXT
  5
17C
330
70
100
AcDbEntity
  8
moji
100
AcDbMText
 10
231.490391991281
 20
53.53241287588556
 30
0.0
 40
0.2
 41
0.0
 46
0.0
 71
     7
 72
     1
  1
\C18;\c0;\FArial Unicode MS|b0|i0|c129;\H2.044196;\W1.000000;部品名
 73
     1
 44
1.0
  0
INSERT
  5
17E
330
70
100
AcDbEntity
  8
moji
100
AcDbBlockReference
  2
Block_10
 10
0.0
 20
0.0
 30
0.0
  0
MTEXT
  5
184
330
70
100
AcDbEntity
  8
moji
100
AcDbMText
 10
229.5631840449855
 20
47.38826809864013
 30
0.0
 40
0.2
 41
0.0
 46
0.0
 71
     7
 72
     1
  1
\C18;\c0;\FKozGoPr6N-Regular|b0|i0|c128;\H2.044196;\W1.000000;1.8m
 73
     1
 44
1.0
  0
MTEXT
  5
185
330
70
100
AcDbEntity
  8
moji
100
AcDbMText
 10
205.0989581125165
 20
35.09962865163905
 30
0.0
 40
0.2
 41
0.0
 46
0.0
 71
     7
 72
     1
  1
\C18;\c0;\FArial Unicode MS|b0|i0|c129;\H2.044196;\W1.000000;前脚調整キャスター 
 73
     1
 44
1.0
  0
MTEXT
  5
186
330
70
100
AcDbEntity
  8
moji
100
AcDbMText
 10
239.2892053641686
 20
35.09962865163905
 30
0.0
 40
0.2
 41
0.0
 46
0.0
 71
     7
 72
     1
  1
\C18;\c0;\FKozGoPr6N-Regular|b0|i0|c128;\H2.044196;\W1.000000;15
 73
     1
 44
1.0
  0
MTEXT
  5
187
330
70
100
AcDbEntity
  8
moji
100
AcDbMText
 10
247.4221929991254
 20
35.21312301603125
 30
0.0
 40
0.2
 41
0.0
 46
0.0
 71
     7
 72
     1
  1
\C18;\c0;\FKozGoPr6N-Regular|b0|i0|c128;\H2.044196;\W1.000000;mm
 73
     1
 44
1.0
  0
MTEXT
  5
188
330
70
100
AcDbEntity
  8
moji
100
AcDbMText
 10
205.0989581125165
 20
28.94413120817738
 30
0.0
 40
0.2
 41
0.0
 46
0.0
 71
     7
 72
     1
  1
\C18;\c0;\FArial Unicode MS|b0|i0|c129;\H2.044196;\W1.000000;前後固定ローラー 
 73
     1
 44
1.0
  0
MTEXT
  5
189
330
70
100
AcDbEntity
  8
moji
100
AcDbMText
 10
264.0886606191992
 20
53.53241287588556
 30
0.0
 40
0.2
 41
0.0
 46
0.0
 71
     7
 72
     1
  1
\C18;\c0;\FArial Unicode MS|b0|i0|c129;\H2.044196;\W1.000000;個数
 73
     1
 44
1.0
  0
MTEXT
  5
18A
330
70
100
AcDbEntity
  8
moji
100
AcDbMText
 10
198.6272385842407
 20
53.26504116846
 30
0.0
 40
0.2
 41
0.0
 46
0.0
 71
     7
 72
     1
  1
\C18;\c0;\FKozGoPr6N-Regular|b0|i0|c128;\H2.613392;\W0.666667;No.
 73
     1
 44
1.0
  0
MTEXT
  5
18B
330
70
100
AcDbEntity
  8
moji
100
AcDbMText
 10
200.2853845731383
 20
47.38826809864013
 30
0.0
 40
0.2
 41
0.0
 46
0.0
 71
     7
 72
     1
  1
\C18;\c0;\FArial Unicode MS|b0|i0|c129;\H2.044196;\W1.000000;①
 73
     1
 44
1.0
  0
MTEXT
  5
18C
330
70
100
AcDbEntity
  8
moji
100
AcDbMText
 10
200.2853845731383
 20
41.23966084614896
 30
0.0
 40
0.2
 41
0.0
 46
0.0
 71
     7
 72
     1
  1
\C18;\c0;\FArial Unicode MS|b0|i0|c129;\H2.044196;\W1.000000;②
 73
     1
 44
1.0
  0
MTEXT
  5
18D
330
70
100
AcDbEntity
  8
moji
100
AcDbMText
 10
200.2853845731383
 20
35.09238856815833
 30
0.0
 40
0.2
 41
0.0
 46
0.0
 71
     7
 72
     1
  1
\C18;\c0;\FArial Unicode MS|b0|i0|c129;\H2.044196;\W1.000000;③
 73
     1
 44
1.0
  0
MTEXT
  5
18E
330
70
100
AcDbEntity
  8
moji
100
AcDbMText
 10
200.2853845731383
 20
28.94413120817738
 30
0.0
 40
0.2
 41
0.0
 46
0.0
 71
     7
 72
     1
  1
\C18;\c0;\FArial Unicode MS|b0|i0|c129;\H2.044196;\W1.000000;④
 73
     1
 44
1.0
  0
MTEXT
  5
18F
330
70
100
AcDbEntity
  8
moji
100
AcDbMText
 10
265.191500279568
 20
47.38826809864013
 30
0.0
 40
0.2
 41
0.0
 46
0.0
 71
     7
 72
     1
  1
\C18;\c0;\FKozGoPr6N-Regular|b0|i0|c128;\H2.044196;\W1.000000;1
 73
     1
 44
1.0
  0
MTEXT
  5
190
330
70
100
AcDbEntity
  8
moji
100
AcDbMText
 10
265.191500279568
 20
41.23966084614896
 30
0.0
 40
0.2
 41
0.0
 46
0.0
 71
     7
 72
     1
  1
\C18;\c0;\FKozGoPr6N-Regular|b0|i0|c128;\H2.044196;\W1.000000;1
 73
     1
 44
1.0
  0
MTEXT
  5
191
330
70
100
AcDbEntity
  8
moji
100
AcDbMText
 10
264.8508018679236
 20
35.09238856815833
 30
0.0
 40
0.2
 41
0.0
 46
0.0
 71
     7
 72
     1
  1
\C18;\c0;\FKozGoPr6N-Regular|b0|i0|c128;\H2.044196;\W1.000000;2
 73
     1
 44
1.0
  0
MTEXT
  5
192
330
70
100
AcDbEntity
  8
moji
100
AcDbMText
 10
264.8508018679236
 20
28.94413120817738
 30
0.0
 40
0.2
 41
0.0
 46
0.0
 71
     7
 72
     1
  1
\C18;\c0;\FKozGoPr6N-Regular|b0|i0|c128;\H2.044196;\W1.000000;4
 73
     1
 44
1.0
  0
MTEXT
  5
193
330
70
100
AcDbEntity
  8
moji
100
AcDbMText
 10
244.0586170857952
 20
36.56182945185129
 30
0.0
 40
0.2
 41
0.0
 46
0.0
 71
     7
 72
     1
  1
\C18;\c0;\FKozGoPr6N-Regular|b0|i0|c128;\H1.550613;\W1.011240;-0
 73
     1
 44
1.0
  0
MTEXT
  5
194
330
70
100
AcDbEntity
  8
moji
100
AcDbMText
 10
243.1472816707128
 20
34.452553592122
 30
0.0
 40
0.2
 41
0.0
 46
0.0
 71
     7
 72
     1
  1
\C18;\c0;\FKozGoPr6N-Regular|b0|i0|c128;\H1.550613;\W1.011240;+20
 73
     1
 44
1.0
  0
INSERT
  5
196
330
70
100
AcDbEntity
  8
moji
100
AcDbBlockReference
  2
Block_11
 10
0.0
 20
0.0
 30
0.0
  0
INSERT
  5
19F
330
70
100
AcDbEntity
  8
moji
100
AcDbBlockReference
  2
Block_12
 10
0.0
 20
0.0
 30
0.0
  0
LINE
  5
1A5
330
70
100
AcDbEntity
  8
moji
 62
    18
420
        0
370
    18
100
AcDbLine
 10
269.1491118941017
 20
26.89224131145584
 30
0.0
 11
269.1610996098723
 21
57.62434947437892
 31
0.0
  0
LINE
  5
1A6
330
70
100
AcDbEntity
  8
moji
 62
    18
420
        0
370
    18
100
AcDbLine
 10
269.1610996098723
 20
57.62434947437892
 30
0.0
 11
198.2607565907562
 21
57.62434947437892
 31
0.0
  0
LINE
  5
1A7
330
70
100
AcDbEntity
  8
moji
 62
    18
420
        0
370
    18
100
AcDbLine
 10
198.2607565907562
 20
57.62434947437892
 30
0.0
 11
198.2607565907562
 21
26.89224131145584
 31
0.0
  0
LINE
  5
1A8
330
70
100
AcDbEntity
  8
moji
 62
    18
420
        0
370
    18
100
AcDbLine
 10
203.3320927045257
 20
57.62470102029602
 30
0.0
 11
203.3320927045257
 21
26.89224131145584
 31
0.0
  0
LINE
  5
1A9
330
70
100
AcDbEntity
  8
moji
 62
    18
420
        0
370
    18
100
AcDbLine
 10
261.9152812502906
 20
57.62470102029602
 30
0.0
 11
261.9152812502906
 21
26.89224131145584
 31
0.0
  0
LINE
  5
1AA
330
70
100
AcDbEntity
  8
moji
 62
    18
420
        0
370
    18
100
AcDbLine
 10
198.2607565907562
 20
45.33606194476168
 30
0.0
 11
269.1491118941017
 21
45.33606194476168
 31
0.0
  0
LINE
  5
1AB
330
70
100
AcDbEntity
  8
moji
 62
    18
420
        0
370
    18
100
AcDbLine
 10
198.2607565907562
 20
51.48467034271644
 30
0.0
 11
269.1491118941017
 21
51.48467034271644
 31
0.0
  0
LINE
  5
1AC
330
70
100
AcDbEntity
  8
moji
 62
    18
420
        0
370
    18
100
AcDbLine
 10
198.2607565907562
 20
39.18878942129165
 30
0.0
 11
269.1491118941017
 21
39.18878942129165
 31
0.0
  0
LINE
  5
1AD
330
70
100
AcDbEntity
  8
moji
 62
    18
420
        0
370
    18
100
AcDbLine
 10
198.2607565907562
 20
33.04053256925399
 30
0.0
 11
269.1491118941017
 21
33.04053256925399
 31
0.0
  0
LINE
  5
1AE
330
70
100
AcDbEntity
  8
moji
 62
    18
420
        0
370
    18
100
AcDbLine
 10
198.2607565907562
 20
26.89224131145584
 30
0.0
 11
269.1491118941017
 21
26.89224131145584
 31
0.0
  0
SPLINE
  5
1AF
330
70
100
AcDbEntity
  8
moji
100
AcDbSpline
210
0.0
220
0.0
230
1.0
 70
     9
 71
     3
 72
    17
 73
    13
 74
     0
 42
0.0000000001
 43
0.0000000001
 40
0.0
 40
0.0
 40
0.0
 40
0.0
 40
1.0
 40
1.0
 40
1.0
 40
2.0
 40
2.0
 40
2.0
 40
3.0
 40
3.0
 40
3.0
 40
4.0
 40
4.0
 40
4.0
 40
4.0
 10
25.56203110599961
 20
189.4329191179839
 30
0.0
 10
25.56203110599961
 20
190.5457887434241
 30
0.0
 10
26.42745320922478
 20
191.4533624835236
 30
0.0
 10
27.48951413741667
 20
191.4533624835236
 30
0.0
 10
28.55245107714555
 20
191.4533624835236
 30
0.0
 10
29.41722905424073
 20
190.5457887434241
 30
0.0
 10
29.41722905424073
 20
189.4329191179839
 30
0.0
 10
29.41722905424073
 20
188.3187612402511
 30
0.0
 10
28.55245107714555
 20
187.413712474645
 30
0.0
 10
27.48951413741667
 20
187.413712474645
 30
0.0
 10
26.42745320922478
 20
187.413712474645
 30
0.0
 10
25.56203110599961
 20
188.3187612402511
 30
0.0
 10
25.56203110599961
 20
189.4329191179839
 30
0.0
  0
SPLINE
  5
1B0
330
70
100
AcDbEntity
  8
moji
100
AcDbSpline
210
0.0
220
0.0
230
1.0
 70
     9
 71
     3
 72
    59
 73
    55
 74
     0
 42
0.0000000001
 43
0.0000000001
 40
0.0
 40
0.0
 40
0.0
 40
0.0
 40
1.0
 40
1.0
 40
1.0
 40
2.0
 40
2.0
 40
2.0
 40
3.0
 40
3.0
 40
3.0
 40
4.0
 40
4.0
 40
4.0
 40
5.0
 40
5.0
 40
5.0
 40
6.0
 40
6.0
 40
6.0
 40
7.0
 40
7.0
 40
7.0
 40
8.0
 40
8.0
 40
8.0
 40
9.0
 40
9.0
 40
9.0
 40
10.0
 40
10.0
 40
10.0
 40
11.0
 40
11.0
 40
11.0
 40
12.0
 40
12.0
 40
12.0
 40
13.0
 40
13.0
 40
13.0
 40
14.0
 40
14.0
 40
14.0
 40
15.0
 40
15.0
 40
15.0
 40
16.0
 40
16.0
 40
16.0
 40
17.0
 40
17.0
 40
17.0
 40
18.0
 40
18.0
 40
18.0
 40
18.0
 10
21.23833509346323
 20
189.6213646633377
 30
0.0
 10
21.2396460462692
 20
190.6848863182258
 30
0.0
 10
21.24095699907517
 20
191.7484079731138
 30
0.0
 10
21.24097580586292
 20
191.7636651403144
 30
0.0
 10
21.24066062410891
 20
192.210756510655
 30
0.0
 10
20.87659377074873
 20
192.5730340810683
 30
0.0
 10
20.43030460800876
 20
192.5730340810683
 30
0.0
 10
19.98217316552308
 20
192.5730340810683
 30
0.0
 10
19.62022580140911
 20
192.210442590808
 30
0.0
 10
19.62022580140911
 20
191.7630840996978
 30
0.0
 10
19.62022580140911
 20
191.7638312860275
 30
0.0
 10
19.62022580140911
 20
191.7638312860275
 30
0.0
 10
19.62022580140911
 20
191.7638312860275
 30
0.0
 10
19.62022580140911
 20
191.7638312860275
 30
0.0
 10
19.61782965214478
 20
187.4001342954817
 30
0.0
 10
19.61782965214478
 20
187.4001342954817
 30
0.0
 10
19.61973626553772
 20
186.511703984449
 30
0.0
 10
20.34185320560251
 20
185.7900765802556
 30
0.0
 10
21.23066999232256
 20
185.7913390675022
 30
0.0
 10
21.71476943881582
 20
185.7923439042908
 30
0.0
 10
22.11685808707221
 20
185.9420388206846
 30
0.0
 10
22.44430604651998
 20
186.3461377998112
 30
0.0
 10
22.44430604651998
 20
186.3461377998112
 30
0.0
 10
24.06255700544591
 20
188.3502203612354
 30
0.0
 10
24.06255700544591
 20
188.3502203612354
 30
0.0
 10
24.06734930385329
 20
188.3547550093051
 30
0.0
 10
24.07425433596666
 20
188.3582848205866
 30
0.0
 10
24.08231879511442
 20
188.3582848205866
 30
0.0
 10
24.0937584751833
 20
188.3582848205866
 30
0.0
 10
24.10344613217849
 20
188.3512251980237
 30
0.0
 10
24.10584228138186
 20
188.3401462283076
 30
0.0
 10
24.55935860699368
 20
186.8639636913233
 30
0.0
 10
25.90158863669112
 20
185.7913390675022
 30
0.0
 10
27.48459301378335
 20
185.7913390675022
 30
0.0
 10
29.43521305579036
 20
185.7913390675022
 30
0.0
 10
31.02478751940853
 20
187.4268011179373
 30
0.0
 10
31.02478751940853
 20
189.4374280010078
 30
0.0
 10
31.02478751940853
 20
191.4468181618773
 30
0.0
 10
29.43521305579036
 20
193.0827955132293
 30
0.0
 10
27.48459301378335
 20
193.0827955132293
 30
0.0
 10
26.31638009936704
 20
193.0827955132293
 30
0.0
 10
25.33169160191107
 20
192.4595390540949
 30
0.0
 10
24.63410300311922
 20
191.5995275886359
 30
0.0
 10
24.63410300311922
 20
191.5995275886359
 30
0.0
 10
21.28024194053967
 20
187.4630525374497
 30
0.0
 10
21.28024194053967
 20
187.4630525374497
 30
0.0
 10
21.26903414559448
 20
187.4549880780982
 30
0.0
 10
21.27622259338715
 20
187.4580025884627
 30
0.0
 10
21.28024194053967
 20
187.4630525374497
 30
0.0
 10
21.24739150707994
 20
187.4549880780982
 30
0.0
 10
21.23569417626368
 20
187.4652940964384
 30
0.0
 10
21.23569417626368
 20
187.4788980406479
 30
0.0
 10
21.23569417626368
 20
187.4788980406479
 30
0.0
 10
21.2370146348633
 20
188.5501313519929
 30
0.0
 10
21.23833509346323
 20
189.6213646633377
 30
0.0
  0
SPLINE
  5
1B1
330
70
100
AcDbEntity
  8
moji
100
AcDbSpline
210
0.0
220
0.0
230
1.0
 70
     9
 71
     3
 72
    17
 73
    13
 74
     0
 42
0.0000000001
 43
0.0000000001
 40
0.0
 40
0.0
 40
0.0
 40
0.0
 40
1.0
 40
1.0
 40
1.0
 40
2.0
 40
2.0
 40
2.0
 40
3.0
 40
3.0
 40
3.0
 40
4.0
 40
4.0
 40
4.0
 40
4.0
 10
21.36879640312955
 20
194.335054036723
 30
0.0
 10
21.36879640312955
 20
194.8599137857525
 30
0.0
 10
20.9432093757634
 20
195.2848824520184
 30
0.0
 10
20.41922563829271
 20
195.2848824520184
 30
0.0
 10
19.89449471449234
 20
195.2848824520184
 30
0.0
 10
19.46875309685122
 20
194.8599137857525
 30
0.0
 10
19.46875309685122
 20
194.335054036723
 30
0.0
 10
19.46875309685122
 20
193.8109414740228
 30
0.0
 10
19.89449471449234
 20
193.3854832718861
 30
0.0
 10
20.41922563829271
 20
193.3854832718861
 30
0.0
 10
20.9432093757634
 20
193.3854832718861
 30
0.0
 10
21.36879640312955
 20
193.8109414740228
 30
0.0
 10
21.36879640312955
 20
194.335054036723
 30
0.0
  0
HATCH
  5
1B2
330
70
100
AcDbEntity
  8
moji
 62
    18
420
        0
440
 33554687
100
AcDbHatch
 10
0.0
 20
0.0
 30
0.0
210
0.0
220
0.0
230
1.0
  2
SOLID
 70
     1
 71
     1
 91
        3
 92
        1
 93
        1
 72
     4
 94
        3
 73
     0
 74
     0
 95
       17
 96
       13
 40
0.0
 40
0.0
 40
0.0
 40
0.0
 40
1.0
 40
1.0
 40
1.0
 40
2.0
 40
2.0
 40
2.0
 40
3.0
 40
3.0
 40
3.0
 40
4.0
 40
4.0
 40
4.0
 40
4.0
 10
25.56203110599961
 20
189.4329191179839
 10
25.56203110599961
 20
190.5457887434241
 10
26.42745320922478
 20
191.4533624835236
 10
27.48951413741667
 20
191.4533624835236
 10
28.55245107714555
 20
191.4533624835236
 10
29.41722905424073
 20
190.5457887434241
 10
29.41722905424073
 20
189.4329191179839
 10
29.41722905424073
 20
188.3187612402511
 10
28.55245107714555
 20
187.413712474645
 10
27.48951413741667
 20
187.413712474645
 10
26.42745320922478
 20
187.413712474645
 10
25.56203110599961
 20
188.3187612402511
 10
25.56203110599961
 20
189.4329191179839
 97
        0
 97
        1
330
1AF
 92
        1
 93
        2
 72
     4
 94
        3
 73
     0
 74
     0
 95
       59
 96
       55
 40
0.0
 40
0.0
 40
0.0
 40
0.0
 40
1.0
 40
1.0
 40
1.0
 40
2.0
 40
2.0
 40
2.0
 40
3.0
 40
3.0
 40
3.0
 40
4.0
 40
4.0
 40
4.0
 40
5.0
 40
5.0
 40
5.0
 40
6.0
 40
6.0
 40
6.0
 40
7.0
 40
7.0
 40
7.0
 40
8.0
 40
8.0
 40
8.0
 40
9.0
 40
9.0
 40
9.0
 40
10.0
 40
10.0
 40
10.0
 40
11.0
 40
11.0
 40
11.0
 40
12.0
 40
12.0
 40
12.0
 40
13.0
 40
13.0
 40
13.0
 40
14.0
 40
14.0
 40
14.0
 40
15.0
 40
15.0
 40
15.0
 40
16.0
 40
16.0
 40
16.0
 40
17.0
 40
17.0
 40
17.0
 40
18.0
 40
18.0
 40
18.0
 40
18.0
 10
21.23833509346323
 20
189.6213646633377
 10
21.2396460462692
 20
190.6848863182258
 10
21.24095699907517
 20
191.7484079731138
 10
21.24097580586292
 20
191.7636651403144
 10
21.24066062410891
 20
192.210756510655
 10
20.87659377074873
 20
192.5730340810683
 10
20.43030460800876
 20
192.5730340810683
 10
19.98217316552308
 20
192.5730340810683
 10
19.62022580140911
 20
192.210442590808
 10
19.62022580140911
 20
191.7630840996978
 10
19.62022580140911
 20
191.7638312860275
 10
19.62022580140911
 20
191.7638312860275
 10
19.62022580140911
 20
191.7638312860275
 10
19.62022580140911
 20
191.7638312860275
 10
19.61782965214478
 20
187.4001342954817
 10
19.61782965214478
 20
187.4001342954817
 10
19.61973626553772
 20
186.511703984449
 10
20.34185320560251
 20
185.7900765802556
 10
21.23066999232256
 20
185.7913390675022
 10
21.71476943881582
 20
185.7923439042908
 10
22.11685808707221
 20
185.9420388206846
 10
22.44430604651998
 20
186.3461377998112
 10
22.44430604651998
 20
186.3461377998112
 10
24.06255700544591
 20
188.3502203612354
 10
24.06255700544591
 20
188.3502203612354
 10
24.06734930385329
 20
188.3547550093051
 10
24.07425433596666
 20
188.3582848205866
 10
24.08231879511442
 20
188.3582848205866
 10
24.0937584751833
 20
188.3582848205866
 10
24.10344613217849
 20
188.3512251980237
 10
24.10584228138186
 20
188.3401462283076
 10
24.55935860699368
 20
186.8639636913233
 10
25.90158863669112
 20
185.7913390675022
 10
27.48459301378335
 20
185.7913390675022
 10
29.43521305579036
 20
185.7913390675022
 10
31.02478751940853
 20
187.4268011179373
 10
31.02478751940853
 20
189.4374280010078
 10
31.02478751940853
 20
191.4468181618773
 10
29.43521305579036
 20
193.0827955132293
 10
27.48459301378335
 20
193.0827955132293
 10
26.31638009936704
 20
193.0827955132293
 10
25.33169160191107
 20
192.4595390540949
 10
24.63410300311922
 20
191.5995275886359
 10
24.63410300311922
 20
191.5995275886359
 10
21.28024194053967
 20
187.4630525374497
 10
21.28024194053967
 20
187.4630525374497
 10
21.26903414559448
 20
187.4549880780982
 10
21.27622259338715
 20
187.4580025884627
 10
21.28024194053967
 20
187.4630525374497
 10
21.24739150707994
 20
187.4549880780982
 10
21.23569417626368
 20
187.4652940964384
 10
21.23569417626368
 20
187.4788980406479
 10
21.23569417626368
 20
187.4788980406479
 10
21.2370146348633
 20
188.5501313519929
 10
21.23833509346323
 20
189.6213646633377
 97
        0
 72
     1
 10
21.23833509346322
 20
189.6213646633377
 11
21.23833509346323
 21
189.6213646633377
 97
        0
 92
        1
 93
        2
 72
     4
 94
        3
 73
     0
 74
     0
 95
       17
 96
       13
 40
0.0
 40
0.0
 40
0.0
 40
0.0
 40
1.0
 40
1.0
 40
1.0
 40
2.0
 40
2.0
 40
2.0
 40
3.0
 40
3.0
 40
3.0
 40
4.0
 40
4.0
 40
4.0
 40
4.0
 10
21.36879640312955
 20
194.335054036723
 10
21.36879640312955
 20
194.8599137857525
 10
20.9432093757634
 20
195.2848824520184
 10
20.41922563829271
 20
195.2848824520184
 10
19.89449471449234
 20
195.2848824520184
 10
19.46875309685122
 20
194.8599137857525
 10
19.46875309685122
 20
194.335054036723
 10
19.46875309685122
 20
193.8109414740228
 10
19.89449471449234
 20
193.3854832718861
 10
20.41922563829271
 20
193.3854832718861
 10
20.9432093757634
 20
193.3854832718861
 10
21.36879640312955
 20
193.8109414740228
 10
21.36879640312955
 20
194.335054036723
 97
        0
 72
     1
 10
21.36879640312955
 20
194.3350540367229
 11
21.36879640312955
 21
194.335054036723
 97
        0
 75
     0
 76
     1
 98
        1
 10
0.0
 20
0.0
450
        0
451
        0
460
0.0
461
0.0
452
        0
462
0.0
453
        0
470

  0
SPLINE
  5
1B3
330
70
100
AcDbEntity
  8
moji
100
AcDbSpline
210
0.0
220
0.0
230
1.0
 70
    11
 71
     3
 72
    17
 73
    13
 74
     0
 42
0.0000000001
 43
0.0000000001
 40
0.0
 40
0.0
 40
0.0
 40
0.0
 40
1.0
 40
1.0
 40
1.0
 40
2.0
 40
2.0
 40
2.0
 40
3.0
 40
3.0
 40
3.0
 40
4.0
 40
4.0
 40
4.0
 40
4.0
 10
61.28771395518932
 20
189.6037542544984
 30
0.0
 10
60.70991993405508
 20
189.604263114154
 30
0.0
 10
60.13212591292083
 20
189.6047719738098
 30
0.0
 10
60.13212591292083
 20
189.6047719738098
 30
0.0
 10
60.25250020409564
 20
190.1842278549975
 30
0.0
 10
60.73422925420121
 20
190.4916821471369
 30
0.0
 10
61.31443230706158
 20
190.4906773103486
 30
0.0
 10
61.85225186056786
 20
190.4906773103486
 30
0.0
 10
62.34467340443158
 20
190.1394224402626
 30
0.0
 10
62.4433019974575
 20
189.6027365351874
 30
0.0
 10
62.4433019974575
 20
189.6027365351874
 30
0.0
 10
61.86550797632325
 20
189.6032453948429
 30
0.0
 10
61.28771395518932
 20
189.6037542544984
 30
0.0
  0
SPLINE
  5
1B4
330
70
100
AcDbEntity
  8
moji
100
AcDbSpline
210
0.0
220
0.0
230
1.0
 70
     9
 71
     3
 72
    35
 73
    31
 74
     0
 42
0.0000000001
 43
0.0000000001
 40
0.0
 40
0.0
 40
0.0
 40
0.0
 40
1.0
 40
1.0
 40
1.0
 40
2.0
 40
2.0
 40
2.0
 40
3.0
 40
3.0
 40
3.0
 40
4.0
 40
4.0
 40
4.0
 40
5.0
 40
5.0
 40
5.0
 40
6.0
 40
6.0
 40
6.0
 40
7.0
 40
7.0
 40
7.0
 40
8.0
 40
8.0
 40
8.0
 40
9.0
 40
9.0
 40
9.0
 40
10.0
 40
10.0
 40
10.0
 40
10.0
 10
61.35596555992417
 20
185.7900765802556
 30
0.0
 10
62.63777655862783
 20
185.7900765802556
 30
0.0
 10
63.89936199684898
 20
186.3919222862879
 30
0.0
 10
64.21665852848787
 20
187.7156530469722
 30
0.0
 10
64.21665852848787
 20
187.7156530469722
 30
0.0
 10
62.299507280196
 20
187.7181780214657
 30
0.0
 10
62.299507280196
 20
187.7181780214657
 30
0.0
 10
62.08034980572415
 20
187.3455381633234
 30
0.0
 10
61.77299858153265
 20
187.2043714771061
 30
0.0
 10
61.34650978833597
 20
187.2043714771061
 30
0.0
 10
60.52463061149862
 20
187.204886778023
 30
0.0
 10
60.09765228244306
 20
187.6424287866637
 30
0.0
 10
60.09765228244306
 20
188.4533836048224
 30
0.0
 10
60.09765228244306
 20
188.4533836048224
 30
0.0
 10
64.29415978444971
 20
188.449853793541
 30
0.0
 10
64.29415978444971
 20
188.449853793541
 30
0.0
 10
64.29415978444971
 20
188.449853793541
 30
0.0
 10
64.29415978444971
 20
188.502066658958
 30
0.0
 10
64.29415978444971
 20
188.554279524375
 30
0.0
 10
64.29415978444971
 20
188.6064923897919
 30
0.0
 10
64.29415978444971
 20
188.6587052552085
 30
0.0
 10
64.29415978444971
 20
188.6587052552085
 30
0.0
 10
64.29539650661934
 20
190.5762430276198
 30
0.0
 10
63.16794558804059
 20
191.7827170646364
 30
0.0
 10
61.2174526769286
 20
191.7834642509658
 30
0.0
 10
59.38733575132265
 20
191.7852162740837
 30
0.0
 10
58.10413344017823
 20
190.6569906813165
 30
0.0
 10
58.10413344017823
 20
188.7837430227233
 30
0.0
 10
58.10261330251154
 20
186.8448202622561
 30
0.0
 10
59.49289514150713
 20
185.7920862538322
 30
0.0
 10
61.35596555992417
 20
185.7900765802556
 30
0.0
  0
SPLINE
  5
1B5
330
70
100
AcDbEntity
  8
moji
100
AcDbSpline
210
0.0
220
0.0
230
1.0
 70
     9
 71
     3
 72
    17
 73
    13
 74
     0
 42
0.0000000001
 43
0.0000000001
 40
0.0
 40
0.0
 40
0.0
 40
0.0
 40
1.0
 40
1.0
 40
1.0
 40
2.0
 40
2.0
 40
2.0
 40
3.0
 40
3.0
 40
3.0
 40
4.0
 40
4.0
 40
4.0
 40
4.0
 10
54.19320716677964
 20
187.5259450143719
 30
0.0
 10
53.3809884142823
 20
187.5259450143719
 30
0.0
 10
52.91059598406486
 20
188.0739417745756
 30
0.0
 10
52.91059598406486
 20
188.786525647675
 30
0.0
 10
52.91124011019486
 20
189.4766939308844
 30
0.0
 10
53.38250855194932
 20
190.057412299319
 30
0.0
 10
54.19320716677964
 20
190.057412299319
 30
0.0
 10
55.00364519593748
 20
190.0564074625311
 30
0.0
 10
55.47465598724006
 20
189.4751737931795
 30
0.0
 10
55.47426951156193
 20
188.7852631604284
 30
0.0
 10
55.47426951156193
 20
188.0724474019159
 30
0.0
 10
55.00274490741655
 20
187.5244248766667
 30
0.0
 10
54.19320716677964
 20
187.5259450143719
 30
0.0
  0
SPLINE
  5
1B6
330
70
100
AcDbEntity
  8
moji
100
AcDbSpline
210
0.0
220
0.0
230
1.0
 70
     9
 71
     3
 72
    50
 73
    46
 74
     0
 42
0.0000000001
 43
0.0000000001
 40
0.0
 40
0.0
 40
0.0
 40
0.0
 40
1.0
 40
1.0
 40
1.0
 40
2.0
 40
2.0
 40
2.0
 40
3.0
 40
3.0
 40
3.0
 40
4.0
 40
4.0
 40
4.0
 40
5.0
 40
5.0
 40
5.0
 40
6.0
 40
6.0
 40
6.0
 40
7.0
 40
7.0
 40
7.0
 40
8.0
 40
8.0
 40
8.0
 40
9.0
 40
9.0
 40
9.0
 40
10.0
 40
10.0
 40
10.0
 40
11.0
 40
11.0
 40
11.0
 40
12.0
 40
12.0
 40
12.0
 40
13.0
 40
13.0
 40
13.0
 40
14.0
 40
14.0
 40
14.0
 40
15.0
 40
15.0
 40
15.0
 40
15.0
 10
54.69464500885305
 20
185.7951007641968
 30
0.0
 10
56.37102190975044
 20
185.7940959274085
 30
0.0
 10
57.53410758017192
 20
187.1726804707093
 30
0.0
 10
57.53459711603081
 20
188.7945643419807
 30
0.0
 10
57.53485476648268
 20
190.4051373581236
 30
0.0
 10
56.3857337505597
 20
191.7852162740837
 30
0.0
 10
54.72033275891782
 20
191.7879988990359
 30
0.0
 10
54.07443030540681
 20
191.7882565494941
 30
0.0
 10
53.40577438776488
 20
191.5467092446415
 30
0.0
 10
52.97766239672045
 20
191.0545453387967
 30
0.0
 10
52.97766239672045
 20
191.0545453387967
 30
0.0
 10
52.98016160610488
 20
195.0745366176909
 30
0.0
 10
52.98016160610488
 20
195.0745366176909
 30
0.0
 10
52.98016160610488
 20
195.0745366176909
 30
0.0
 10
52.48175613049349
 20
195.0748522395025
 30
0.0
 10
51.98335065488209
 20
195.0751678613144
 30
0.0
 10
51.4849451792707
 20
195.0754834831258
 30
0.0
 10
50.9865397036593
 20
195.0757991049377
 30
0.0
 10
50.9865397036593
 20
195.0757991049377
 30
0.0
 10
50.9865397036593
 20
195.0757991049377
 30
0.0
 10
50.98505821356024
 20
192.802613522123
 30
0.0
 10
50.98357672346118
 20
190.5294279393086
 30
0.0
 10
50.98209523336211
 20
188.2562423564942
 30
0.0
 10
50.98061374326336
 20
185.9830567736795
 30
0.0
 10
50.98061374326336
 20
185.9830567736795
 30
0.0
 10
50.98061374326336
 20
185.9830567736795
 30
0.0
 10
51.4793090756332
 20
185.9829923610647
 30
0.0
 10
51.97800440800303
 20
185.9829279484503
 30
0.0
 10
52.47669974037318
 20
185.9828635358356
 30
0.0
 10
52.97539507274301
 20
185.9827991232208
 30
0.0
 10
52.97539507274301
 20
185.9827991232208
 30
0.0
 10
52.97539507274301
 20
185.9827991232208
 30
0.0
 10
52.97539507274301
 20
186.1386776506193
 30
0.0
 10
52.97539507274301
 20
186.2945561780175
 30
0.0
 10
52.97539507274301
 20
186.4504347054157
 30
0.0
 10
52.97539507274301
 20
186.6063132328138
 30
0.0
 10
52.97539507274301
 20
186.6063132328138
 30
0.0
 10
52.97539507274301
 20
186.6063132328138
 30
0.0
 10
52.98096032250601
 20
186.6063712041669
 30
0.0
 10
52.98652557226933
 20
186.6064291755202
 30
0.0
 10
52.99209082203264
 20
186.6064871468733
 30
0.0
 10
52.99765607179597
 20
186.6065451182266
 30
0.0
 10
52.99765607179597
 20
186.6065451182266
 30
0.0
 10
53.35859859000374
 20
186.0477270387651
 30
0.0
 10
54.03807436201971
 20
185.7951007641968
 30
0.0
 10
54.69464500885305
 20
185.7951007641968
 30
0.0
  0
SPLINE
  5
1B7
330
70
100
AcDbEntity
  8
moji
100
AcDbSpline
210
0.0
220
0.0
230
1.0
 70
     9
 71
     3
 72
    17
 73
    13
 74
     0
 42
0.0000000001
 43
0.0000000001
 40
0.0
 40
0.0
 40
0.0
 40
0.0
 40
1.0
 40
1.0
 40
1.0
 40
2.0
 40
2.0
 40
2.0
 40
3.0
 40
3.0
 40
3.0
 40
4.0
 40
4.0
 40
4.0
 40
4.0
 10
46.98615572571561
 20
187.5304796624412
 30
0.0
 10
46.17496904263671
 20
187.5304796624412
 30
0.0
 10
45.70493732305189
 20
188.0782187721867
 30
0.0
 10
45.70493732305189
 20
188.7918074820747
 30
0.0
 10
45.70493732305189
 20
189.4819757652841
 30
0.0
 10
46.17646341525821
 20
190.0626941337188
 30
0.0
 10
46.98716056247856
 20
190.0616892969305
 30
0.0
 10
47.79811536015077
 20
190.0616892969305
 30
0.0
 10
48.26938380190522
 20
189.4799660917076
 30
0.0
 10
48.26912615145335
 20
188.790029693911
 30
0.0
 10
48.26812131469041
 20
188.077471585857
 30
0.0
 10
47.79711052338783
 20
187.5304796624412
 30
0.0
 10
46.98615572571561
 20
187.5304796624412
 30
0.0
  0
SPLINE
  5
1B8
330
70
100
AcDbEntity
  8
moji
100
AcDbSpline
210
0.0
220
0.0
230
1.0
 70
     9
 71
     3
 72
    50
 73
    46
 74
     0
 42
0.0000000001
 43
0.0000000001
 40
0.0
 40
0.0
 40
0.0
 40
0.0
 40
1.0
 40
1.0
 40
1.0
 40
2.0
 40
2.0
 40
2.0
 40
3.0
 40
3.0
 40
3.0
 40
4.0
 40
4.0
 40
4.0
 40
5.0
 40
5.0
 40
5.0
 40
6.0
 40
6.0
 40
6.0
 40
7.0
 40
7.0
 40
7.0
 40
8.0
 40
8.0
 40
8.0
 40
9.0
 40
9.0
 40
9.0
 40
10.0
 40
10.0
 40
10.0
 40
11.0
 40
11.0
 40
11.0
 40
12.0
 40
12.0
 40
12.0
 40
13.0
 40
13.0
 40
13.0
 40
14.0
 40
14.0
 40
14.0
 40
15.0
 40
15.0
 40
15.0
 40
15.0
 10
49.19857439200042
 20
185.9835591920736
 30
0.0
 10
49.6970764865312
 20
185.9833079828764
 30
0.0
 10
50.19557858106228
 20
185.9830567736795
 30
0.0
 10
50.19557858106228
 20
185.9830567736795
 30
0.0
 10
50.19557858106228
 20
185.9830567736795
 30
0.0
 10
50.19646137553813
 20
187.388056930239
 30
0.0
 10
50.19734417001398
 20
188.7930570867986
 30
0.0
 10
50.19822696448983
 20
190.1980572433581
 30
0.0
 10
50.19910975896568
 20
191.6030573999177
 30
0.0
 10
50.19910975896568
 20
191.6030573999177
 30
0.0
 10
50.19910975896568
 20
191.6030573999177
 30
0.0
 10
49.70013066942068
 20
191.6036242309262
 30
0.0
 10
49.20115157987599
 20
191.6041910619351
 30
0.0
 10
48.702172490331
 20
191.6047578929437
 30
0.0
 10
48.20319340078632
 20
191.6053247239526
 30
0.0
 10
48.20319340078632
 20
191.6053247239526
 30
0.0
 10
48.20319340078632
 20
191.6053247239526
 30
0.0
 10
48.20319340078632
 20
191.4684479178694
 30
0.0
 10
48.20319340078632
 20
191.3315711117862
 30
0.0
 10
48.20319340078632
 20
191.1946943057031
 30
0.0
 10
48.20319340078632
 20
191.0578174996199
 30
0.0
 10
48.20319340078632
 20
191.0578174996199
 30
0.0
 10
47.78853206915088
 20
191.5504709413357
 30
0.0
 10
47.10944146699817
 20
191.792275896647
 30
0.0
 10
46.46155364039708
 20
191.7932807334352
 30
0.0
 10
44.79738937092482
 20
191.7932807334352
 30
0.0
 10
43.64564032039115
 20
190.4136913533462
 30
0.0
 10
43.6446354836282
 20
188.8036336381205
 30
0.0
 10
43.64386253227227
 20
187.1935759228948
 30
0.0
 10
44.8161205587852
 20
185.8006402490548
 30
0.0
 10
46.48015600303152
 20
185.7998930627251
 30
0.0
 10
47.13889091366187
 20
185.7998930627251
 30
0.0
 10
47.82741021654334
 20
186.0517463859183
 30
0.0
 10
48.17866507775562
 20
186.6088124422612
 30
0.0
 10
48.17866507775562
 20
186.6088124422612
 30
0.0
 10
48.20157020293857
 20
186.6088124422612
 30
0.0
 10
48.20157020293857
 20
186.6088124422612
 30
0.0
 10
48.20157020293857
 20
186.6088124422612
 30
0.0
 10
48.20157020293857
 20
186.4526247343127
 30
0.0
 10
48.20157020293857
 20
186.2964370263646
 30
0.0
 10
48.20157020293857
 20
186.1402493184159
 30
0.0
 10
48.20157020293857
 20
185.9840616104674
 30
0.0
 10
48.20157020293857
 20
185.9840616104674
 30
0.0
 10
48.20157020293857
 20
185.9840616104674
 30
0.0
 10
48.70007229746965
 20
185.9838104012705
 30
0.0
 10
49.19857439200042
 20
185.9835591920736
 30
0.0
  0
SPLINE
  5
1B9
330
70
100
AcDbEntity
  8
moji
100
AcDbSpline
210
0.0
220
0.0
230
1.0
 70
     9
 71
     3
 72
    92
 73
    88
 74
     0
 42
0.0000000001
 43
0.0000000001
 40
0.0
 40
0.0
 40
0.0
 40
0.0
 40
1.0
 40
1.0
 40
1.0
 40
2.0
 40
2.0
 40
2.0
 40
3.0
 40
3.0
 40
3.0
 40
4.0
 40
4.0
 40
4.0
 40
5.0
 40
5.0
 40
5.0
 40
6.0
 40
6.0
 40
6.0
 40
7.0
 40
7.0
 40
7.0
 40
8.0
 40
8.0
 40
8.0
 40
9.0
 40
9.0
 40
9.0
 40
10.0
 40
10.0
 40
10.0
 40
11.0
 40
11.0
 40
11.0
 40
12.0
 40
12.0
 40
12.0
 40
13.0
 40
13.0
 40
13.0
 40
14.0
 40
14.0
 40
14.0
 40
15.0
 40
15.0
 40
15.0
 40
16.0
 40
16.0
 40
16.0
 40
17.0
 40
17.0
 40
17.0
 40
18.0
 40
18.0
 40
18.0
 40
19.0
 40
19.0
 40
19.0
 40
20.0
 40
20.0
 40
20.0
 40
21.0
 40
21.0
 40
21.0
 40
22.0
 40
22.0
 40
22.0
 40
23.0
 40
23.0
 40
23.0
 40
24.0
 40
24.0
 40
24.0
 40
25.0
 40
25.0
 40
25.0
 40
26.0
 40
26.0
 40
26.0
 40
27.0
 40
27.0
 40
27.0
 40
28.0
 40
28.0
 40
28.0
 40
29.0
 40
29.0
 40
29.0
 40
29.0
 10
35.4740248471587
 20
187.334716844066
 30
0.0
 10
35.47459192684136
 20
188.0056386380248
 30
0.0
 10
35.47515900652402
 20
188.6765604319834
 30
0.0
 10
35.47515900652402
 20
188.6765604319834
 30
0.0
 10
35.47515900652402
 20
189.3020584501068
 30
0.0
 10
35.47515900652402
 20
190.2556743271423
 30
0.0
 10
36.3632275897274
 20
190.2551847912709
 30
0.0
 10
37.24990585524227
 20
190.2534070031074
 30
0.0
 10
37.24941631938371
 20
189.3010536133188
 30
0.0
 10
37.24864336802777
 20
188.675066059324
 30
0.0
 10
37.24864336802777
 20
188.675066059324
 30
0.0
 10
37.24776735649077
 20
185.9918684193607
 30
0.0
 10
37.24776735649077
 20
185.9918684193607
 30
0.0
 10
37.24776735649077
 20
185.9918684193607
 30
0.0
 10
37.74614706705698
 20
185.9913660009665
 30
0.0
 10
38.24452677762351
 20
185.9908635825724
 30
0.0
 10
38.7429064881894
 20
185.9903611641782
 30
0.0
 10
39.24128619875592
 20
185.9898587457841
 30
0.0
 10
39.24128619875592
 20
185.9898587457841
 30
0.0
 10
39.24128619875592
 20
185.9898587457841
 30
0.0
 10
39.24150520163986
 20
186.6607805397429
 30
0.0
 10
39.24172420452411
 20
187.3317023337015
 30
0.0
 10
39.24194320740836
 20
188.0026241276603
 30
0.0
 10
39.24216221029261
 20
188.6735459216188
 30
0.0
 10
39.24216221029261
 20
188.6735459216188
 30
0.0
 10
39.24316704705555
 20
189.3430764031016
 30
0.0
 10
39.27689349122225
 20
190.2088850038769
 30
0.0
 10
40.19678290000038
 20
190.2073648661717
 30
0.0
 10
41.04169716262142
 20
190.2063600293835
 30
0.0
 10
41.01904855251555
 20
189.2552691268414
 30
0.0
 10
41.01904855251555
 20
188.6730306207016
 30
0.0
 10
41.01904855251555
 20
188.6730306207016
 30
0.0
 10
41.01768300511966
 20
185.9896010953255
 30
0.0
 10
41.01768300511966
 20
185.9896010953255
 30
0.0
 10
41.01768300511966
 20
185.9896010953255
 30
0.0
 10
41.51583727154057
 20
185.9892854735138
 30
0.0
 10
42.01399153796114
 20
185.9889698517022
 30
0.0
 10
42.51214580438205
 20
185.9886542298905
 30
0.0
 10
43.01030007080263
 20
185.9883386080789
 30
0.0
 10
43.01030007080263
 20
185.9883386080789
 30
0.0
 10
43.01030007080263
 20
185.9883386080789
 30
0.0
 10
43.01077702042756
 20
186.8836997164452
 30
0.0
 10
43.01125397005249
 20
187.7790608248113
 30
0.0
 10
43.01173091967711
 20
188.6744219331777
 30
0.0
 10
43.01220786930204
 20
189.569783041544
 30
0.0
 10
43.01220786930204
 20
189.569783041544
 30
0.0
 10
43.01295387045819
 20
190.8638324694078
 30
0.0
 10
42.51955325487705
 20
191.7948008711401
 30
0.0
 10
41.0969362841552
 20
191.7968105447167
 30
0.0
 10
40.32939558764519
 20
191.7968105447167
 30
0.0
 10
39.57316574597781
 20
191.4249178729041
 30
0.0
 10
39.18895739195446
 20
190.7231810841079
 30
0.0
 10
38.78362170086705
 20
191.4686926858049
 30
0.0
 10
38.08374001305225
 20
191.7983049173761
 30
0.0
 10
37.27242450474741
 20
191.7983049173761
 30
0.0
 10
36.55043640815111
 20
191.7983049173761
 30
0.0
 10
35.96845556717186
 20
191.5371504126306
 30
0.0
 10
35.49806313695409
 20
190.9121419303786
 30
0.0
 10
35.49806313695409
 20
190.9121419303786
 30
0.0
 10
35.47693579989002
 20
190.9126314662497
 30
0.0
 10
35.47693579989002
 20
190.9126314662497
 30
0.0
 10
35.47693579989002
 20
190.9126314662497
 30
0.0
 10
35.47693579989002
 20
191.0878788668661
 30
0.0
 10
35.47693579989002
 20
191.2631262674829
 30
0.0
 10
35.47693579989002
 20
191.4383736680997
 30
0.0
 10
35.47693579989002
 20
191.6136210687165
 30
0.0
 10
35.47693579989002
 20
191.6136210687165
 30
0.0
 10
35.47693579989002
 20
191.6136210687165
 30
0.0
 10
34.97792484571657
 20
191.6137498939457
 30
0.0
 10
34.4789138915428
 20
191.6138787191748
 30
0.0
 10
33.97990293736934
 20
191.6140075444042
 30
0.0
 10
33.48089198319556
 20
191.6141363696334
 30
0.0
 10
33.48089198319556
 20
191.6141363696334
 30
0.0
 10
33.48089198319556
 20
191.6141363696334
 30
0.0
 10
33.48051194877881
 20
190.2092006256886
 30
0.0
 10
33.48013191436206
 20
188.8042648817438
 30
0.0
 10
33.4797518799453
 20
187.3993291377989
 30
0.0
 10
33.47937184552888
 20
185.9943933938538
 30
0.0
 10
33.47937184552888
 20
185.9943933938538
 30
0.0
 10
33.47937184552888
 20
185.9943933938538
 30
0.0
 10
33.97775155609509
 20
185.9940133594274
 30
0.0
 10
34.47613126666129
 20
185.9936333250013
 30
0.0
 10
34.97451097722751
 20
185.993253290575
 30
0.0
 10
35.47289068779372
 20
185.9928732561486
 30
0.0
 10
35.47289068779372
 20
185.9928732561486
 30
0.0
 10
35.47289068779372
 20
185.9928732561486
 30
0.0
 10
35.47345776747637
 20
186.6637950501075
 30
0.0
 10
35.4740248471587
 20
187.334716844066
 30
0.0
  0
HATCH
  5
1BA
330
70
100
AcDbEntity
  8
moji
 62
    18
420
        0
440
 33554687
100
AcDbHatch
 10
0.0
 20
0.0
 30
0.0
210
0.0
220
0.0
230
1.0
  2
SOLID
 70
     1
 71
     1
 91
        7
 92
        1
 93
        1
 72
     4
 94
        3
 73
     0
 74
     0
 95
       17
 96
       13
 40
0.0
 40
0.0
 40
0.0
 40
0.0
 40
1.0
 40
1.0
 40
1.0
 40
2.0
 40
2.0
 40
2.0
 40
3.0
 40
3.0
 40
3.0
 40
4.0
 40
4.0
 40
4.0
 40
4.0
 10
61.28771395518932
 20
189.6037542544984
 10
60.70991993405508
 20
189.604263114154
 10
60.13212591292083
 20
189.6047719738098
 10
60.13212591292083
 20
189.6047719738098
 10
60.25250020409564
 20
190.1842278549975
 10
60.73422925420121
 20
190.4916821471369
 10
61.31443230706158
 20
190.4906773103486
 10
61.85225186056786
 20
190.4906773103486
 10
62.34467340443158
 20
190.1394224402626
 10
62.4433019974575
 20
189.6027365351874
 10
62.4433019974575
 20
189.6027365351874
 10
61.86550797632325
 20
189.6032453948429
 10
61.28771395518932
 20
189.6037542544984
 97
        0
 97
        1
330
1B3
 92
        1
 93
        2
 72
     4
 94
        3
 73
     0
 74
     0
 95
       35
 96
       31
 40
0.0
 40
0.0
 40
0.0
 40
0.0
 40
1.0
 40
1.0
 40
1.0
 40
2.0
 40
2.0
 40
2.0
 40
3.0
 40
3.0
 40
3.0
 40
4.0
 40
4.0
 40
4.0
 40
5.0
 40
5.0
 40
5.0
 40
6.0
 40
6.0
 40
6.0
 40
7.0
 40
7.0
 40
7.0
 40
8.0
 40
8.0
 40
8.0
 40
9.0
 40
9.0
 40
9.0
 40
10.0
 40
10.0
 40
10.0
 40
10.0
 10
61.35596555992417
 20
185.7900765802556
 10
62.63777655862783
 20
185.7900765802556
 10
63.89936199684898
 20
186.3919222862879
 10
64.21665852848787
 20
187.7156530469722
 10
64.21665852848787
 20
187.7156530469722
 10
62.299507280196
 20
187.7181780214657
 10
62.299507280196
 20
187.7181780214657
 10
62.08034980572415
 20
187.3455381633234
 10
61.77299858153265
 20
187.2043714771061
 10
61.34650978833597
 20
187.2043714771061
 10
60.52463061149862
 20
187.204886778023
 10
60.09765228244306
 20
187.6424287866637
 10
60.09765228244306
 20
188.4533836048224
 10
60.09765228244306
 20
188.4533836048224
 10
64.29415978444971
 20
188.449853793541
 10
64.29415978444971
 20
188.449853793541
 10
64.29415978444971
 20
188.449853793541
 10
64.29415978444971
 20
188.502066658958
 10
64.29415978444971
 20
188.554279524375
 10
64.29415978444971
 20
188.6064923897919
 10
64.29415978444971
 20
188.6587052552085
 10
64.29415978444971
 20
188.6587052552085
 10
64.29539650661934
 20
190.5762430276198
 10
63.16794558804059
 20
191.7827170646364
 10
61.2174526769286
 20
191.7834642509658
 10
59.38733575132265
 20
191.7852162740837
 10
58.10413344017823
 20
190.6569906813165
 10
58.10413344017823
 20
188.7837430227233
 10
58.10261330251154
 20
186.8448202622561
 10
59.49289514150713
 20
185.7920862538322
 10
61.35596555992417
 20
185.7900765802556
 97
        0
 72
     1
 10
61.35596555992417
 20
185.7900765802557
 11
61.35596555992417
 21
185.7900765802556
 97
        0
 92
        1
 93
        2
 72
     4
 94
        3
 73
     0
 74
     0
 95
       17
 96
       13
 40
0.0
 40
0.0
 40
0.0
 40
0.0
 40
1.0
 40
1.0
 40
1.0
 40
2.0
 40
2.0
 40
2.0
 40
3.0
 40
3.0
 40
3.0
 40
4.0
 40
4.0
 40
4.0
 40
4.0
 10
54.19320716677964
 20
187.5259450143719
 10
53.3809884142823
 20
187.5259450143719
 10
52.91059598406486
 20
188.0739417745756
 10
52.91059598406486
 20
188.786525647675
 10
52.91124011019486
 20
189.4766939308844
 10
53.38250855194932
 20
190.057412299319
 10
54.19320716677964
 20
190.057412299319
 10
55.00364519593748
 20
190.0564074625311
 10
55.47465598724006
 20
189.4751737931795
 10
55.47426951156193
 20
188.7852631604284
 10
55.47426951156193
 20
188.0724474019159
 10
55.00274490741655
 20
187.5244248766667
 10
54.19320716677964
 20
187.5259450143719
 97
        0
 72
     1
 10
54.19320716677964
 20
187.5259450143719
 11
54.19320716677964
 21
187.5259450143719
 97
        0
 92
        1
 93
        2
 72
     4
 94
        3
 73
     0
 74
     0
 95
       50
 96
       46
 40
0.0
 40
0.0
 40
0.0
 40
0.0
 40
1.0
 40
1.0
 40
1.0
 40
2.0
 40
2.0
 40
2.0
 40
3.0
 40
3.0
 40
3.0
 40
4.0
 40
4.0
 40
4.0
 40
5.0
 40
5.0
 40
5.0
 40
6.0
 40
6.0
 40
6.0
 40
7.0
 40
7.0
 40
7.0
 40
8.0
 40
8.0
 40
8.0
 40
9.0
 40
9.0
 40
9.0
 40
10.0
 40
10.0
 40
10.0
 40
11.0
 40
11.0
 40
11.0
 40
12.0
 40
12.0
 40
12.0
 40
13.0
 40
13.0
 40
13.0
 40
14.0
 40
14.0
 40
14.0
 40
15.0
 40
15.0
 40
15.0
 40
15.0
 10
54.69464500885305
 20
185.7951007641968
 10
56.37102190975044
 20
185.7940959274085
 10
57.53410758017192
 20
187.1726804707093
 10
57.53459711603081
 20
188.7945643419807
 10
57.53485476648268
 20
190.4051373581236
 10
56.3857337505597
 20
191.7852162740837
 10
54.72033275891782
 20
191.7879988990359
 10
54.07443030540681
 20
191.7882565494941
 10
53.40577438776488
 20
191.5467092446415
 10
52.97766239672045
 20
191.0545453387967
 10
52.97766239672045
 20
191.0545453387967
 10
52.98016160610488
 20
195.0745366176909
 10
52.98016160610488
 20
195.0745366176909
 10
52.98016160610488
 20
195.0745366176909
 10
52.48175613049349
 20
195.0748522395025
 10
51.98335065488209
 20
195.0751678613144
 10
51.4849451792707
 20
195.0754834831258
 10
50.9865397036593
 20
195.0757991049377
 10
50.9865397036593
 20
195.0757991049377
 10
50.9865397036593
 20
195.0757991049377
 10
50.98505821356024
 20
192.802613522123
 10
50.98357672346118
 20
190.5294279393086
 10
50.98209523336211
 20
188.2562423564942
 10
50.98061374326336
 20
185.9830567736795
 10
50.98061374326336
 20
185.9830567736795
 10
50.98061374326336
 20
185.9830567736795
 10
51.4793090756332
 20
185.9829923610647
 10
51.97800440800303
 20
185.9829279484503
 10
52.47669974037318
 20
185.9828635358356
 10
52.97539507274301
 20
185.9827991232208
 10
52.97539507274301
 20
185.9827991232208
 10
52.97539507274301
 20
185.9827991232208
 10
52.97539507274301
 20
186.1386776506193
 10
52.97539507274301
 20
186.2945561780175
 10
52.97539507274301
 20
186.4504347054157
 10
52.97539507274301
 20
186.6063132328138
 10
52.97539507274301
 20
186.6063132328138
 10
52.97539507274301
 20
186.6063132328138
 10
52.98096032250601
 20
186.6063712041669
 10
52.98652557226933
 20
186.6064291755202
 10
52.99209082203264
 20
186.6064871468733
 10
52.99765607179597
 20
186.6065451182266
 10
52.99765607179597
 20
186.6065451182266
 10
53.35859859000374
 20
186.0477270387651
 10
54.03807436201971
 20
185.7951007641968
 10
54.69464500885305
 20
185.7951007641968
 97
        0
 72
     1
 10
54.69464500885305
 20
185.7951007641968
 11
54.69464500885305
 21
185.7951007641968
 97
        0
 92
        1
 93
        2
 72
     4
 94
        3
 73
     0
 74
     0
 95
       17
 96
       13
 40
0.0
 40
0.0
 40
0.0
 40
0.0
 40
1.0
 40
1.0
 40
1.0
 40
2.0
 40
2.0
 40
2.0
 40
3.0
 40
3.0
 40
3.0
 40
4.0
 40
4.0
 40
4.0
 40
4.0
 10
46.98615572571561
 20
187.5304796624412
 10
46.17496904263671
 20
187.5304796624412
 10
45.70493732305189
 20
188.0782187721867
 10
45.70493732305189
 20
188.7918074820747
 10
45.70493732305189
 20
189.4819757652841
 10
46.17646341525821
 20
190.0626941337188
 10
46.98716056247856
 20
190.0616892969305
 10
47.79811536015077
 20
190.0616892969305
 10
48.26938380190522
 20
189.4799660917076
 10
48.26912615145335
 20
188.790029693911
 10
48.26812131469041
 20
188.077471585857
 10
47.79711052338783
 20
187.5304796624412
 10
46.98615572571561
 20
187.5304796624412
 97
        0
 72
     1
 10
46.98615572571561
 20
187.5304796624412
 11
46.98615572571561
 21
187.5304796624412
 97
        0
 92
        1
 93
        2
 72
     4
 94
        3
 73
     0
 74
     0
 95
       50
 96
       46
 40
0.0
 40
0.0
 40
0.0
 40
0.0
 40
1.0
 40
1.0
 40
1.0
 40
2.0
 40
2.0
 40
2.0
 40
3.0
 40
3.0
 40
3.0
 40
4.0
 40
4.0
 40
4.0
 40
5.0
 40
5.0
 40
5.0
 40
6.0
 40
6.0
 40
6.0
 40
7.0
 40
7.0
 40
7.0
 40
8.0
 40
8.0
 40
8.0
 40
9.0
 40
9.0
 40
9.0
 40
10.0
 40
10.0
 40
10.0
 40
11.0
 40
11.0
 40
11.0
 40
12.0
 40
12.0
 40
12.0
 40
13.0
 40
13.0
 40
13.0
 40
14.0
 40
14.0
 40
14.0
 40
15.0
 40
15.0
 40
15.0
 40
15.0
 10
49.19857439200042
 20
185.9835591920736
 10
49.6970764865312
 20
185.9833079828764
 10
50.19557858106228
 20
185.9830567736795
 10
50.19557858106228
 20
185.9830567736795
 10
50.19557858106228
 20
185.9830567736795
 10
50.19646137553813
 20
187.388056930239
 10
50.19734417001398
 20
188.7930570867986
 10
50.19822696448983
 20
190.1980572433581
 10
50.19910975896568
 20
191.6030573999177
 10
50.19910975896568
 20
191.6030573999177
 10
50.19910975896568
 20
191.6030573999177
 10
49.70013066942068
 20
191.6036242309262
 10
49.20115157987599
 20
191.6041910619351
 10
48.702172490331
 20
191.6047578929437
 10
48.20319340078632
 20
191.6053247239526
 10
48.20319340078632
 20
191.6053247239526
 10
48.20319340078632
 20
191.6053247239526
 10
48.20319340078632
 20
191.4684479178694
 10
48.20319340078632
 20
191.3315711117862
 10
48.20319340078632
 20
191.1946943057031
 10
48.20319340078632
 20
191.0578174996199
 10
48.20319340078632
 20
191.0578174996199
 10
47.78853206915088
 20
191.5504709413357
 10
47.10944146699817
 20
191.792275896647
 10
46.46155364039708
 20
191.7932807334352
 10
44.79738937092482
 20
191.7932807334352
 10
43.64564032039115
 20
190.4136913533462
 10
43.6446354836282
 20
188.8036336381205
 10
43.64386253227227
 20
187.1935759228948
 10
44.8161205587852
 20
185.8006402490548
 10
46.48015600303152
 20
185.7998930627251
 10
47.13889091366187
 20
185.7998930627251
 10
47.82741021654334
 20
186.0517463859183
 10
48.17866507775562
 20
186.6088124422612
 10
48.17866507775562
 20
186.6088124422612
 10
48.20157020293857
 20
186.6088124422612
 10
48.20157020293857
 20
186.6088124422612
 10
48.20157020293857
 20
186.6088124422612
 10
48.20157020293857
 20
186.4526247343127
 10
48.20157020293857
 20
186.2964370263646
 10
48.20157020293857
 20
186.1402493184159
 10
48.20157020293857
 20
185.9840616104674
 10
48.20157020293857
 20
185.9840616104674
 10
48.20157020293857
 20
185.9840616104674
 10
48.70007229746965
 20
185.9838104012705
 10
49.19857439200042
 20
185.9835591920736
 97
        0
 72
     1
 10
49.19857439200042
 20
185.9835591920736
 11
49.19857439200042
 21
185.9835591920736
 97
        0
 92
        1
 93
        2
 72
     4
 94
        3
 73
     0
 74
     0
 95
       92
 96
       88
 40
0.0
 40
0.0
 40
0.0
 40
0.0
 40
1.0
 40
1.0
 40
1.0
 40
2.0
 40
2.0
 40
2.0
 40
3.0
 40
3.0
 40
3.0
 40
4.0
 40
4.0
 40
4.0
 40
5.0
 40
5.0
 40
5.0
 40
6.0
 40
6.0
 40
6.0
 40
7.0
 40
7.0
 40
7.0
 40
8.0
 40
8.0
 40
8.0
 40
9.0
 40
9.0
 40
9.0
 40
10.0
 40
10.0
 40
10.0
 40
11.0
 40
11.0
 40
11.0
 40
12.0
 40
12.0
 40
12.0
 40
13.0
 40
13.0
 40
13.0
 40
14.0
 40
14.0
 40
14.0
 40
15.0
 40
15.0
 40
15.0
 40
16.0
 40
16.0
 40
16.0
 40
17.0
 40
17.0
 40
17.0
 40
18.0
 40
18.0
 40
18.0
 40
19.0
 40
19.0
 40
19.0
 40
20.0
 40
20.0
 40
20.0
 40
21.0
 40
21.0
 40
21.0
 40
22.0
 40
22.0
 40
22.0
 40
23.0
 40
23.0
 40
23.0
 40
24.0
 40
24.0
 40
24.0
 40
25.0
 40
25.0
 40
25.0
 40
26.0
 40
26.0
 40
26.0
 40
27.0
 40
27.0
 40
27.0
 40
28.0
 40
28.0
 40
28.0
 40
29.0
 40
29.0
 40
29.0
 40
29.0
 10
35.4740248471587
 20
187.334716844066
 10
35.47459192684136
 20
188.0056386380248
 10
35.47515900652402
 20
188.6765604319834
 10
35.47515900652402
 20
188.6765604319834
 10
35.47515900652402
 20
189.3020584501068
 10
35.47515900652402
 20
190.2556743271423
 10
36.3632275897274
 20
190.2551847912709
 10
37.24990585524227
 20
190.2534070031074
 10
37.24941631938371
 20
189.3010536133188
 10
37.24864336802777
 20
188.675066059324
 10
37.24864336802777
 20
188.675066059324
 10
37.24776735649077
 20
185.9918684193607
 10
37.24776735649077
 20
185.9918684193607
 10
37.24776735649077
 20
185.9918684193607
 10
37.74614706705698
 20
185.9913660009665
 10
38.24452677762351
 20
185.9908635825724
 10
38.7429064881894
 20
185.9903611641782
 10
39.24128619875592
 20
185.9898587457841
 10
39.24128619875592
 20
185.9898587457841
 10
39.24128619875592
 20
185.9898587457841
 10
39.24150520163986
 20
186.6607805397429
 10
39.24172420452411
 20
187.3317023337015
 10
39.24194320740836
 20
188.0026241276603
 10
39.24216221029261
 20
188.6735459216188
 10
39.24216221029261
 20
188.6735459216188
 10
39.24316704705555
 20
189.3430764031016
 10
39.27689349122225
 20
190.2088850038769
 10
40.19678290000038
 20
190.2073648661717
 10
41.04169716262142
 20
190.2063600293835
 10
41.01904855251555
 20
189.2552691268414
 10
41.01904855251555
 20
188.6730306207016
 10
41.01904855251555
 20
188.6730306207016
 10
41.01768300511966
 20
185.9896010953255
 10
41.01768300511966
 20
185.9896010953255
 10
41.01768300511966
 20
185.9896010953255
 10
41.51583727154057
 20
185.9892854735138
 10
42.01399153796114
 20
185.9889698517022
 10
42.51214580438205
 20
185.9886542298905
 10
43.01030007080263
 20
185.9883386080789
 10
43.01030007080263
 20
185.9883386080789
 10
43.01030007080263
 20
185.9883386080789
 10
43.01077702042756
 20
186.8836997164452
 10
43.01125397005249
 20
187.7790608248113
 10
43.01173091967711
 20
188.6744219331777
 10
43.01220786930204
 20
189.569783041544
 10
43.01220786930204
 20
189.569783041544
 10
43.01295387045819
 20
190.8638324694078
 10
42.51955325487705
 20
191.7948008711401
 10
41.0969362841552
 20
191.7968105447167
 10
40.32939558764519
 20
191.7968105447167
 10
39.57316574597781
 20
191.4249178729041
 10
39.18895739195446
 20
190.7231810841079
 10
38.78362170086705
 20
191.4686926858049
 10
38.08374001305225
 20
191.7983049173761
 10
37.27242450474741
 20
191.7983049173761
 10
36.55043640815111
 20
191.7983049173761
 10
35.96845556717186
 20
191.5371504126306
 10
35.49806313695409
 20
190.9121419303786
 10
35.49806313695409
 20
190.9121419303786
 10
35.47693579989002
 20
190.9126314662497
 10
35.47693579989002
 20
190.9126314662497
 10
35.47693579989002
 20
190.9126314662497
 10
35.47693579989002
 20
191.0878788668661
 10
35.47693579989002
 20
191.2631262674829
 10
35.47693579989002
 20
191.4383736680997
 10
35.47693579989002
 20
191.6136210687165
 10
35.47693579989002
 20
191.6136210687165
 10
35.47693579989002
 20
191.6136210687165
 10
34.97792484571657
 20
191.6137498939457
 10
34.4789138915428
 20
191.6138787191748
 10
33.97990293736934
 20
191.6140075444042
 10
33.48089198319556
 20
191.6141363696334
 10
33.48089198319556
 20
191.6141363696334
 10
33.48089198319556
 20
191.6141363696334
 10
33.48051194877881
 20
190.2092006256886
 10
33.48013191436206
 20
188.8042648817438
 10
33.4797518799453
 20
187.3993291377989
 10
33.47937184552888
 20
185.9943933938538
 10
33.47937184552888
 20
185.9943933938538
 10
33.47937184552888
 20
185.9943933938538
 10
33.97775155609509
 20
185.9940133594274
 10
34.47613126666129
 20
185.9936333250013
 10
34.97451097722751
 20
185.993253290575
 10
35.47289068779372
 20
185.9928732561486
 10
35.47289068779372
 20
185.9928732561486
 10
35.47289068779372
 20
185.9928732561486
 10
35.47345776747637
 20
186.6637950501075
 10
35.4740248471587
 20
187.334716844066
 97
        0
 72
     1
 10
35.4740248471587
 20
187.334716844066
 11
35.4740248471587
 21
187.334716844066
 97
        0
 75
     0
 76
     1
 98
        1
 10
0.0
 20
0.0
450
        0
451
        0
460
0.0
461
0.0
452
        0
462
0.0
453
        0
470

  0
LINE
  5
1BB
330
70
100
AcDbEntity
  8
moji
 62
    18
420
        0
370
    18
100
AcDbLine
 10
18.68741130156736
 20
90.86811123536049
 30
0.0
 11
81.98420247650677
 21
90.86811123536049
 31
0.0
  0
MTEXT
  5
1BC
330
70
100
AcDbEntity
  8
moji
100
AcDbMText
 10
19.74752686324752
 20
87.99556551958639
 30
0.0
 40
0.2
 41
0.0
 46
0.0
 71
     7
 72
     1
  1
\C18;\c0;\FArial Unicode MS|b0|i0|c129;\H1.766858;\W1.000000;冷媒種（充填量）
 73
     1
 44
1.0
  0
INSERT
  5
1BE
330
70
100
AcDbEntity
  8
moji
100
AcDbBlockReference
  2
Block_13
 10
0.0
 20
0.0
 30
0.0
  0
MTEXT
  5
1C4
330
70
100
AcDbEntity
  8
moji
100
AcDbMText
 10
28.81009007899269
 20
36.72335598345425
 30
0.0
 40
0.2
 41
0.0
 46
0.0
 71
     7
 72
     1
  1
\C18;\c0;\FArial Unicode MS|b0|i0|c129;\H1.766858;\W1.000000;飲料水源（上水道）とだけ接続すること。 
 73
     1
 44
1.0
  0
LINE
  5
1C5
330
70
100
AcDbEntity
  8
moji
 62
    18
420
        0
370
    18
100
AcDbLine
 10
18.68741130156736
 20
176.1364078489771
 30
0.0
 11
81.98416732191557
 21
176.1364078489771
 31
0.0
  0
LINE
  5
1C6
330
70
100
AcDbEntity
  8
moji
 62
    18
420
        0
370
    18
100
AcDbLine
 10
81.9761169204154
 20
168.2195937975692
 30
0.0
 11
81.9761169204154
 21
184.0532219003852
 31
0.0
  0
LINE
  5
1C7
330
70
100
AcDbEntity
  8
moji
 62
    18
420
        0
370
    18
100
AcDbLine
 10
81.9761169204154
 20
184.0532219003852
 30
0.0
 11
18.68741130156736
 21
184.0532219003852
 31
0.0
  0
INSERT
  5
1C9
330
70
100
AcDbEntity
  8
moji
100
AcDbBlockReference
  2
Block_14
 10
0.0
 20
0.0
 30
0.0
  0
MTEXT
  5
1CE
330
70
100
AcDbEntity
  8
moji
100
AcDbMText
 10
22.89751493093469
 20
170.3239166681666
 30
0.0
 40
0.2
 41
0.0
 46
0.0
 71
     7
 72
     1
  1
\C18;\c0;\FArial Unicode MS|b0|i0|c129;\H2.826973;\W1.000000;型式
 73
     1
 44
1.0
  0
MTEXT
  5
1CF
330
70
100
AcDbEntity
  8
moji
100
AcDbMText
 10
40.16478567178931
 20
170.3239166681666
 30
0.0
 40
0.2
 41
0.0
 46
0.0
 71
     7
 72
     1
  1
\C18;\c0;\FKozGoPr6N-Regular|b0|i0|c128;\H3.533717;\W1.000000;IWO19JSSS
 73
     1
 44
1.0
  0
MTEXT
  5
1D0
330
70
100
AcDbEntity
  8
moji
100
AcDbMText
 10
57.78219653910262
 20
148.8926989712946
 30
0.0
 40
0.2
 41
0.0
 46
0.0
 71
     7
 72
     1
  1
\C18;\c0;\FArial Unicode MS|b0|i0|c129;\H1.766858;\W1.000000;ドア：ステンレス
 73
     1
 44
1.0
  0
MTEXT
  5
1D1
330
70
100
AcDbEntity
  8
moji
100
AcDbMText
 10
55.70094437796115
 20
92.85723043875401
 30
0.0
 40
0.2
 41
0.0
 46
0.0
 71
     7
 72
     1
  1
\C18;\c0;\FKozGoPr6N-Regular|b0|i0|c128;\H1.766858;\W1.000000;263 / 263
 73
     1
 44
1.0
  0
MTEXT
  5
1D2
330
70
100
AcDbEntity
  8
moji
100
AcDbMText
 10
55.76165880292699
 20
87.99542556258231
 30
0.0
 40
0.2
 41
0.0
 46
0.0
 71
     7
 72
     1
  1
\C18;\c0;\FKozGoPr6N-Regular|b0|i0|c128;\H1.766858;\W1.000000;R600a(54g)
 73
     1
 44
1.0
  0
MTEXT
  5
1D3
330
70
100
AcDbEntity
  8
moji
100
AcDbMText
 10
55.89676575852744
 20
68.10545207546225
 30
0.0
 40
0.2
 41
0.0
 46
0.0
 71
     7
 72
     1
  1
\C18;\c0;\FArial Unicode MS|b0|i0|c129;\H1.766858;\W0.750000;庫内ディスペンサー付（冷水）
 73
     1
 44
1.0
  0
INSERT
  5
1D5
330
70
100
AcDbEntity
  8
moji
100
AcDbBlockReference
  2
Block_15
 10
0.0
 20
0.0
 30
0.0
  0
MTEXT
  5
1DA
330
70
100
AcDbEntity
  8
moji
100
AcDbMText
 10
239.2892053641686
 20
28.95133899388793
 30
0.0
 40
0.2
 41
0.0
 46
0.0
 71
     7
 72
     1
  1
\C18;\c0;\FKozGoPr6N-Regular|b0|i0|c128;\H2.044196;\W1.000000;15mm
 73
     1
 44
1.0
  0
LINE
  5
1DB
330
70
100
AcDbEntity
  8
moji
 62
    18
420
        0
370
    18
100
AcDbLine
 10
36.05476436991735
 20
100.6199857025884
 30
0.0
 11
81.98420247650677
 21
100.6199857025884
 31
0.0
  0
MTEXT
  5
1DC
330
70
100
AcDbEntity
  8
moji
100
AcDbMText
 10
61.05414367844849
 20
97.7476188415299
 30
0.0
 40
0.2
 41
0.0
 46
0.0
 71
     7
 72
     1
  1
\C18;\c0;\FKozGoPr6N-Regular|b0|i0|c128;\H1.766858;\W1.000000;269
 73
     1
 44
1.0
  0
MTEXT
  5
1DD
330
70
100
AcDbEntity
  8
moji
100
AcDbMText
 10
38.27238126433734
 20
97.924126155532
 30
0.0
 40
0.2
 41
0.0
 46
0.0
 71
     7
 72
     1
  1
\C18;\c0;\FArial Unicode MS|b0|i0|c129;\H1.413487;\W1.000000;霜取装置
 73
     1
 44
1.0
  0
INSERT
  5
1DF
330
70
100
AcDbEntity
  8
moji
100
AcDbBlockReference
  2
Block_16
 10
0.0
 20
0.0
 30
0.0
  0
MTEXT
  5
1E4
330
70
100
AcDbEntity
  8
moji
100
AcDbMText
 10
197.6848757779442
 20
62.91244971503903
 30
0.0
 40
0.2
 41
0.0
 46
0.0
 71
     7
 72
     1
  1
\C18;\c0;\FArial Unicode MS|b0|i0|c129;\H1.540512;\W1.011240;＊給水バルブは、必ずお客様ご自身で開閉できる位置に設けてください
 73
     1
 44
1.0
  0
MTEXT
  5
1E5
330
70
100
AcDbEntity
  8
moji
100
AcDbMText
 10
93.83261233209198
 20
72.58726830257258
 30
0.0
 40
0.2
 41
0.0
 46
0.0
 71
     7
 72
     1
  1
\C18;\c0;\FArial Unicode MS|b0|i0|c129;\H1.540512;\W1.011240;※（　）内数値は庫内引き出し、取り出し可能な寸法
 73
     1
 44
1.0
  0
LWPOLYLINE
  5
1E7
330
70
100
AcDbEntity
  8
sugata
 62
     1
420
 16711680
370
    18
100
AcDbPolyline
 90
        6
 70
     0
 43
0.0
 10
131.6753287914883
 20
153.3661388547357
 10
136.608233205146
 20
153.3661388547357
 10
136.608233205146
 20
153.0127671750633
 10
107.8084413118595
 20
153.0127671750633
 10
107.8084413118595
 20
153.3661388547357
 10
112.5071307479647
 20
153.3661388547357
  0
LINE
  5
1E8
330
70
100
AcDbEntity
  8
sugata
 62
     1
420
 16711680
370
    18
100
AcDbLine
 10
115.5496028596994
 20
153.3661388547357
 30
0.0
 11
128.6328566797537
 21
153.3661388547357
 31
0.0
  0
LWPOLYLINE
  5
1E9
330
70
100
AcDbEntity
  8
sugata
 62
     1
420
 16711680
370
    18
100
AcDbPolyline
 90
        3
 70
     0
 43
0.0
 10
107.4818820585448
 20
130.5236470045009
 10
107.4818820585448
 20
129.4081297150931
 10
109.4321904320792
 20
129.4081297150931
  0
SPLINE
  5
1EA
330
70
100
AcDbEntity
  8
sugata
 62
     1
420
 16711680
370
    18
100
AcDbSpline
210
0.0
220
0.0
230
1.0
 70
     8
 71
     3
 72
     8
 73
     4
 74
     0
 42
0.0000000001
 43
0.0000000001
 40
0.0
 40
0.0
 40
0.0
 40
0.0
 40
1.0
 40
1.0
 40
1.0
 40
1.0
 10
109.4321904320792
 20
129.4081297150931
 30
0.0
 10
109.4321904320792
 20
129.4081297150931
 30
0.0
 10
110.0318841832995
 20
129.6760363800404
 30
0.0
 10
110.0318841832995
 20
130.3898023121995
 30
0.0
  0
LWPOLYLINE
  5
1EB
330
70
100
AcDbEntity
  8
sugata
 62
     1
420
 16711680
370
    18
100
AcDbPolyline
 90
        5
 70
     0
 43
0.0
 10
110.0318841832995
 20
130.3898023121995
 10
110.0318841832995
 20
131.1037855247032
 10
130.4806539259912
 20
131.1037855247032
 10
130.4806539259912
 20
137.8447923177435
 10
125.4212802318094
 20
137.8447923177435
  0
SPLINE
  5
1EC
330
70
100
AcDbEntity
  8
sugata
 62
     1
420
 16711680
370
    18
100
AcDbSpline
210
0.0
220
0.0
230
1.0
 70
     8
 71
     3
 72
     8
 73
     4
 74
     0
 42
0.0000000001
 43
0.0000000001
 40
0.0
 40
0.0
 40
0.0
 40
0.0
 40
1.0
 40
1.0
 40
1.0
 40
1.0
 10
125.4212802318094
 20
137.8447923177435
 30
0.0
 10
125.4212802318094
 20
137.8447923177435
 30
0.0
 10
123.3345206709595
 20
137.8460962170918
 30
0.0
 10
123.3345206709595
 20
135.9259898114631
 30
0.0
  0
SPLINE
  5
1ED
330
70
100
AcDbEntity
  8
sugata
 62
     1
420
 16711680
370
    18
100
AcDbSpline
210
0.0
220
0.0
230
1.0
 70
     8
 71
     3
 72
     8
 73
     4
 74
     0
 42
0.0000000001
 43
0.0000000001
 40
0.0
 40
0.0
 40
0.0
 40
0.0
 40
1.0
 40
1.0
 40
1.0
 40
1.0
 10
123.3345206709595
 20
135.9259898114631
 30
0.0
 10
123.3345206709595
 20
135.1868018617001
 30
0.0
 10
116.1911301129535
 20
135.5244557345589
 30
0.0
 10
116.1911301129535
 20
135.5244557345589
 30
0.0
  0
SPLINE
  5
1EE
330
70
100
AcDbEntity
  8
sugata
 62
     1
420
 16711680
370
    18
100
AcDbSpline
210
0.0
220
0.0
230
1.0
 70
     8
 71
     3
 72
     8
 73
     4
 74
     0
 42
0.0000000001
 43
0.0000000001
 40
0.0
 40
0.0
 40
0.0
 40
0.0
 40
1.0
 40
1.0
 40
1.0
 40
1.0
 10
116.1911301129535
 20
135.5244557345589
 30
0.0
 10
116.1911301129535
 20
135.5244557345589
 30
0.0
 10
114.2117061732367
 20
135.8977435839398
 30
0.0
 10
114.2117061732367
 20
137.4289181726536
 30
0.0
  0
SPLINE
  5
1EF
330
70
100
AcDbEntity
  8
sugata
 62
     1
420
 16711680
370
    18
100
AcDbSpline
210
0.0
220
0.0
230
1.0
 70
     8
 71
     3
 72
     8
 73
     4
 74
     0
 42
0.0000000001
 43
0.0000000001
 40
0.0
 40
0.0
 40
0.0
 40
0.0
 40
1.0
 40
1.0
 40
1.0
 40
1.0
 10
114.2117061732367
 20
137.4289181726536
 30
0.0
 10
114.2117061732367
 20
138.9603102589925
 30
0.0
 10
108.7121233699253
 20
138.558775312967
 30
0.0
 10
108.7121233699253
 20
138.558775312967
 30
0.0
  0
LWPOLYLINE
  5
1F0
330
70
100
AcDbEntity
  8
sugata
 62
     1
420
 16711680
370
    18
100
AcDbPolyline
 90
        3
 70
     0
 43
0.0
 10
108.7121233699253
 20
138.558775312967
 10
107.4818820585448
 20
138.558775312967
 10
107.4818820585448
 20
132.197357499302
  0
SPLINE
  5
1F1
330
70
100
AcDbEntity
  8
sugata
 62
     1
420
 16711680
370
    18
100
AcDbSpline
210
0.0
220
0.0
230
1.0
 70
     8
 71
     3
 72
     8
 73
     4
 74
     0
 42
0.0000000001
 43
0.0000000001
 40
0.0
 40
0.0
 40
0.0
 40
0.0
 40
1.0
 40
1.0
 40
1.0
 40
1.0
 10
107.4818820585448
 20
132.197357499302
 30
0.0
 10
107.4818820585448
 20
132.197357499302
 30
0.0
 10
108.6023967958794
 20
132.3533647867571
 30
0.0
 10
108.6028313565688
 20
131.3210658693485
 30
0.0
  0
SPLINE
  5
1F2
330
70
100
AcDbEntity
  8
sugata
 62
     1
420
 16711680
370
    18
100
AcDbSpline
210
0.0
220
0.0
230
1.0
 70
     8
 71
     3
 72
     8
 73
     4
 74
     0
 42
0.0000000001
 43
0.0000000001
 40
0.0
 40
0.0
 40
0.0
 40
0.0
 40
1.0
 40
1.0
 40
1.0
 40
1.0
 10
108.6028313565688
 20
131.3210658693485
 30
0.0
 10
108.603265917258
 20
130.6518424078416
 30
0.0
 10
107.4818820585448
 20
130.5236470045009
 30
0.0
 10
107.4818820585448
 20
130.5236470045009
 30
0.0
  0
SPLINE
  5
1F3
330
70
100
AcDbEntity
  8
sugata
 62
     1
420
 16711680
370
    18
100
AcDbSpline
210
0.0
220
0.0
230
1.0
 70
     8
 71
     3
 72
    11
 73
     7
 74
     0
 42
0.0000000001
 43
0.0000000001
 40
0.0
 40
0.0
 40
0.0
 40
0.0
 40
1.0
 40
1.0
 40
1.0
 40
2.0
 40
2.0
 40
2.0
 40
2.0
 10
136.9061177125089
 20
130.5230196013886
 30
0.0
 10
136.8931517514743
 20
130.5231389195847
 30
0.0
 10
136.8801464057576
 20
130.5232532060479
 30
0.0
 10
136.8671016740601
 20
130.523362460612
 30
0.0
 10
134.7138534586275
 20
130.5413967292176
 30
0.0
 10
131.4874574037124
 20
130.4223271003521
 30
0.0
 10
132.1794957359675
 20
131.0813383856607
 30
0.0
  0
SPLINE
  5
1F4
330
70
100
AcDbEntity
  8
sugata
 62
     1
420
 16711680
370
    18
100
AcDbSpline
210
0.0
220
0.0
230
1.0
 70
     8
 71
     3
 72
     8
 73
     4
 74
     0
 42
0.0000000001
 43
0.0000000001
 40
0.0
 40
0.0
 40
0.0
 40
0.0
 40
1.0
 40
1.0
 40
1.0
 40
1.0
 10
132.1794957359675
 20
131.0813383856607
 30
0.0
 10
132.2451144000503
 20
131.1439151249186
 30
0.0
 10
130.4805805039072
 20
131.1037182611593
 30
0.0
 10
130.4805805039072
 20
131.1037182611593
 30
0.0
  0
LWPOLYLINE
  5
1F5
330
70
100
AcDbEntity
  8
sugata
 62
     1
420
 16711680
370
    18
100
AcDbPolyline
 90
        5
 70
     0
 43
0.0
 10
130.4805805039072
 20
131.1037182611593
 10
130.4805805039072
 20
137.8890500272267
 10
136.9617528273002
 20
137.8890500272267
 10
136.9617528273002
 20
131.1037182611593
 10
136.9061177125089
 20
131.1037182611593
  0
LWPOLYLINE
  5
1F6
330
70
100
AcDbEntity
  8
sugata
 62
     1
420
 16711680
370
    18
100
AcDbPolyline
 90
        3
 70
     0
 43
0.0
 10
107.5245119210851
 20
135.8366251004961
 10
112.2757814347196
 20
135.8366251004961
 10
112.2757814347196
 20
131.1037230353854
  0
SPLINE
  5
1F7
330
70
100
AcDbEntity
  8
sugata
 62
     1
420
 16711680
370
    18
100
AcDbSpline
210
0.0
220
0.0
230
1.0
 70
     8
 71
     3
 72
     8
 73
     4
 74
     0
 42
0.0000000001
 43
0.0000000001
 40
0.0
 40
0.0
 40
0.0
 40
0.0
 40
1.0
 40
1.0
 40
1.0
 40
1.0
 10
135.7270164281832
 20
133.95987709122
 30
0.0
 10
135.8880211635652
 20
133.95987709122
 30
0.0
 10
136.0186066506968
 20
133.8273360809867
 30
0.0
 10
136.0186066506968
 20
133.664158542158
 30
0.0
  0
SPLINE
  5
1F8
330
70
100
AcDbEntity
  8
sugata
 62
     1
420
 16711680
370
    18
100
AcDbSpline
210
0.0
220
0.0
230
1.0
 70
     8
 71
     3
 72
     8
 73
     4
 74
     0
 42
0.0000000001
 43
0.0000000001
 40
0.0
 40
0.0
 40
0.0
 40
0.0
 40
1.0
 40
1.0
 40
1.0
 40
1.0
 10
135.4354262056695
 20
133.664158542158
 30
0.0
 10
135.4354262056695
 20
133.8273360809867
 30
0.0
 10
135.5660116928011
 20
133.95987709122
 30
0.0
 10
135.7270164281832
 20
133.95987709122
 30
0.0
  0
SPLINE
  5
1F9
330
70
100
AcDbEntity
  8
sugata
 62
     1
420
 16711680
370
    18
100
AcDbSpline
210
0.0
220
0.0
230
1.0
 70
     8
 71
     3
 72
     8
 73
     4
 74
     0
 42
0.0000000001
 43
0.0000000001
 40
0.0
 40
0.0
 40
0.0
 40
0.0
 40
1.0
 40
1.0
 40
1.0
 40
1.0
 10
128.6626865705622
 20
133.95987709122
 30
0.0
 10
128.8236913059439
 20
133.95987709122
 30
0.0
 10
128.9542767930758
 20
133.8273360809867
 30
0.0
 10
128.9542767930758
 20
133.664158542158
 30
0.0
  0
SPLINE
  5
1FA
330
70
100
AcDbEntity
  8
sugata
 62
     1
420
 16711680
370
    18
100
AcDbSpline
210
0.0
220
0.0
230
1.0
 70
     8
 71
     3
 72
     8
 73
     4
 74
     0
 42
0.0000000001
 43
0.0000000001
 40
0.0
 40
0.0
 40
0.0
 40
0.0
 40
1.0
 40
1.0
 40
1.0
 40
1.0
 10
128.3710963480482
 20
133.664158542158
 30
0.0
 10
128.3710963480482
 20
133.8273360809867
 30
0.0
 10
128.5016818351801
 20
133.95987709122
 30
0.0
 10
128.6626865705622
 20
133.95987709122
 30
0.0
  0
SPLINE
  5
1FB
330
70
100
AcDbEntity
  8
sugata
 62
     1
420
 16711680
370
    18
100
AcDbSpline
210
0.0
220
0.0
230
1.0
 70
     8
 71
     3
 72
     8
 73
     4
 74
     0
 42
0.0000000001
 43
0.0000000001
 40
0.0
 40
0.0
 40
0.0
 40
0.0
 40
1.0
 40
1.0
 40
1.0
 40
1.0
 10
113.759830532107
 20
133.95987709122
 30
0.0
 10
113.9208352674891
 20
133.95987709122
 30
0.0
 10
114.051420754621
 20
133.8273360809867
 30
0.0
 10
114.051420754621
 20
133.664158542158
 30
0.0
  0
SPLINE
  5
1FC
330
70
100
AcDbEntity
  8
sugata
 62
     1
420
 16711680
370
    18
100
AcDbSpline
210
0.0
220
0.0
230
1.0
 70
     8
 71
     3
 72
     8
 73
     4
 74
     0
 42
0.0000000001
 43
0.0000000001
 40
0.0
 40
0.0
 40
0.0
 40
0.0
 40
1.0
 40
1.0
 40
1.0
 40
1.0
 10
113.4682403095934
 20
133.664158542158
 30
0.0
 10
113.4682403095934
 20
133.8273360809867
 30
0.0
 10
113.598825796725
 20
133.95987709122
 30
0.0
 10
113.759830532107
 20
133.95987709122
 30
0.0
  0
SPLINE
  5
1FD
330
70
100
AcDbEntity
  8
sugata
 62
     1
420
 16711680
370
    18
100
AcDbSpline
210
0.0
220
0.0
230
1.0
 70
     8
 71
     3
 72
     8
 73
     4
 74
     0
 42
0.0000000001
 43
0.0000000001
 40
0.0
 40
0.0
 40
0.0
 40
0.0
 40
1.0
 40
1.0
 40
1.0
 40
1.0
 10
110.3441567255723
 20
134.184451392747
 30
0.0
 10
110.5662172377993
 20
134.184451392747
 30
0.0
 10
110.7463426435101
 20
134.0017186229007
 30
0.0
 10
110.7463426435101
 20
133.7763989055036
 30
0.0
  0
SPLINE
  5
1FE
330
70
100
AcDbEntity
  8
sugata
 62
     1
420
 16711680
370
    18
100
AcDbSpline
210
0.0
220
0.0
230
1.0
 70
     8
 71
     3
 72
     8
 73
     4
 74
     0
 42
0.0000000001
 43
0.0000000001
 40
0.0
 40
0.0
 40
0.0
 40
0.0
 40
1.0
 40
1.0
 40
1.0
 40
1.0
 10
109.9419708076341
 20
133.7763989055036
 30
0.0
 10
109.9419708076341
 20
134.0017186229007
 30
0.0
 10
110.1220962133449
 20
134.184451392747
 30
0.0
 10
110.3441567255723
 20
134.184451392747
 30
0.0
  0
LWPOLYLINE
  5
1FF
330
70
100
AcDbEntity
  8
sugata
 62
     1
420
 16711680
370
    18
100
AcDbPolyline
 90
        4
 70
     1
 43
0.0
 10
110.9475460033864
 20
117.2562911644867
 10
110.5453600854482
 20
117.2562911644867
 10
110.5453600854482
 20
127.5609566370519
 10
110.9475460033864
 20
127.5609566370519
  0
LWPOLYLINE
  5
200
330
70
100
AcDbEntity
  8
sugata
 62
     1
420
 16711680
370
    18
100
AcDbPolyline
 90
        4
 70
     1
 43
0.0
 10
133.5315353421941
 20
117.2562911644867
 10
133.1293494242562
 20
117.2562911644867
 10
133.1293494242559
 20
127.5516809223544
 10
133.5315353421941
 20
127.5516809223544
  0
LWPOLYLINE
  5
201
330
70
100
AcDbEntity
  8
sugata
 62
     1
420
 16711680
370
    18
100
AcDbPolyline
 90
        4
 70
     1
 43
0.0
 10
136.9617756810515
 20
114.8366535527534
 10
107.4550696321874
 20
114.8366535527534
 10
107.4550696321874
 20
117.2143523642046
 10
136.9617756810515
 20
117.2143523642046
  0
SPLINE
  5
202
330
70
100
AcDbEntity
  8
sugata
 62
     1
420
 16711680
370
    18
100
AcDbSpline
210
0.0
220
0.0
230
1.0
 70
     8
 71
     3
 72
     8
 73
     4
 74
     0
 42
0.0000000001
 43
0.0000000001
 40
0.0
 40
0.0
 40
0.0
 40
0.0
 40
1.0
 40
1.0
 40
1.0
 40
1.0
 10
133.8030827905464
 20
113.2893201838301
 30
0.0
 10
133.8030827905464
 20
111.599096382836
 30
0.0
 10
110.2093975567421
 20
111.599096382836
 30
0.0
 10
110.2093975567421
 20
113.2893201838301
 30
0.0
  0
SPLINE
  5
203
330
70
100
AcDbEntity
  8
sugata
 62
     1
420
 16711680
370
    18
100
AcDbSpline
210
0.0
220
0.0
230
1.0
 70
     8
 71
     3
 72
     8
 73
     4
 74
     0
 42
0.0000000001
 43
0.0000000001
 40
0.0
 40
0.0
 40
0.0
 40
0.0
 40
1.0
 40
1.0
 40
1.0
 40
1.0
 10
133.8030827905464
 20
113.388531259165
 30
0.0
 10
133.8030827905464
 20
112.5433107184957
 30
0.0
 10
110.2093975567421
 20
112.5433107184957
 30
0.0
 10
110.2093975567421
 20
113.388531259165
 30
0.0
  0
SPLINE
  5
204
330
70
100
AcDbEntity
  8
sugata
 62
     1
420
 16711680
370
    18
100
AcDbSpline
210
0.0
220
0.0
230
1.0
 70
     8
 71
     3
 72
     8
 73
     4
 74
     0
 42
0.0000000001
 43
0.0000000001
 40
0.0
 40
0.0
 40
0.0
 40
0.0
 40
1.0
 40
1.0
 40
1.0
 40
1.0
 10
135.4451646725227
 20
114.6377805160861
 30
0.0
 10
135.4451646725227
 20
112.947556715092
 30
0.0
 10
108.9297108615563
 20
112.947556715092
 30
0.0
 10
108.9297108615563
 20
114.6377805160861
 30
0.0
  0
SPLINE
  5
205
330
70
100
AcDbEntity
  8
sugata
 62
     1
420
 16711680
370
    18
100
AcDbSpline
210
0.0
220
0.0
230
1.0
 70
     8
 71
     3
 72
     8
 73
     4
 74
     0
 42
0.0000000001
 43
0.0000000001
 40
0.0
 40
0.0
 40
0.0
 40
0.0
 40
1.0
 40
1.0
 40
1.0
 40
1.0
 10
135.4451646725227
 20
114.7369849605514
 30
0.0
 10
135.4451646725227
 20
113.891764419882
 30
0.0
 10
108.9297108615563
 20
113.891764419882
 30
0.0
 10
108.9297108615563
 20
114.7369849605514
 30
0.0
  0
LWPOLYLINE
  5
206
330
70
100
AcDbEntity
  8
sugata
 62
     1
420
 16711680
370
    18
100
AcDbPolyline
 90
        4
 70
     1
 43
0.0
 10
132.1142532758263
 20
113.7630295289671
 10
132.2157231967758
 20
113.0716434723061
 10
133.7642802130611
 20
113.3267305969194
 10
134.036749765246
 20
114.0283288297786
  0
LWPOLYLINE
  5
207
330
70
100
AcDbEntity
  8
sugata
 62
     1
420
 16711680
370
    18
100
AcDbPolyline
 90
        4
 70
     1
 43
0.0
 10
111.8860262708594
 20
113.7630295289671
 10
111.7845563499103
 20
113.0716434723061
 10
110.2359993336246
 20
113.3267305969194
 10
109.9635297814397
 20
114.0283288297786
  0
SPLINE
  5
208
330
70
100
AcDbEntity
  8
sugata
 62
     1
420
 16711680
370
    18
100
AcDbSpline
210
0.0
220
0.0
230
1.0
 70
     8
 71
     3
 72
     8
 73
     4
 74
     0
 42
0.0000000001
 43
0.0000000001
 40
0.0
 40
0.0
 40
0.0
 40
0.0
 40
1.0
 40
1.0
 40
1.0
 40
1.0
 10
130.8853122091423
 20
153.5428246945718
 30
0.0
 10
130.8853122091423
 20
153.5428246945718
 30
0.0
 10
133.1615015689789
 20
157.5092392963902
 30
0.0
 10
138.259767575731
 20
156.3791640066109
 30
0.0
  0
SPLINE
  5
209
330
70
100
AcDbEntity
  8
sugata
 62
     1
420
 16711680
370
    18
100
AcDbSpline
210
0.0
220
0.0
230
1.0
 70
     8
 71
     3
 72
     8
 73
     4
 74
     0
 42
0.0000000001
 43
0.0000000001
 40
0.0
 40
0.0
 40
0.0
 40
0.0
 40
1.0
 40
1.0
 40
1.0
 40
1.0
 10
138.259767575731
 20
156.3791640066109
 30
0.0
 10
141.5252736581214
 20
155.655403178598
 30
0.0
 10
141.6382596546174
 20
158.8022746273732
 30
0.0
 10
141.6382596546174
 20
158.8022746273732
 30
0.0
  0
LWPOLYLINE
  5
20A
330
70
100
AcDbEntity
  8
sugata
 62
     1
420
 16711680
370
    18
100
AcDbPolyline
 90
        4
 70
     1
 43
0.0
 10
142.3980030837672
 20
158.7534079757068
 10
140.9506987080864
 20
158.8533569342436
 10
141.0097989618299
 20
159.7350805728132
 10
142.4571033375108
 20
159.6351316142764
  0
LINE
  5
20B
330
70
100
AcDbEntity
  8
sugata
 62
     1
420
 16711680
370
    18
100
AcDbLine
 10
141.7723672476482
 20
160.3788596359919
 30
0.0
 11
141.7186990025208
 21
159.6861698972636
 31
0.0
  0
LINE
  5
20C
330
70
100
AcDbEntity
  8
sugata
 62
     1
420
 16711680
370
    18
100
AcDbLine
 10
142.1920350031592
 20
160.3788596359919
 30
0.0
 11
142.1383667580318
 21
159.6861698972636
 31
0.0
  0
LINE
  5
20D
330
70
100
AcDbEntity
  8
sugata
 62
     1
420
 16711680
370
    18
100
AcDbLine
 10
141.3689318616344
 20
160.4031551432791
 30
0.0
 11
141.3152636165071
 21
159.7104654045504
 31
0.0
  0
SPLINE
  5
20E
330
70
100
AcDbEntity
  8
sugata
 62
     1
420
 16711680
370
    18
100
AcDbSpline
210
0.0
220
0.0
230
1.0
 70
     8
 71
     3
 72
    17
 73
    13
 74
     0
 42
0.0000000001
 43
0.0000000001
 40
0.0
 40
0.0
 40
0.0
 40
0.0
 40
1.0
 40
1.0
 40
1.0
 40
2.0
 40
2.0
 40
2.0
 40
3.0
 40
3.0
 40
3.0
 40
4.0
 40
4.0
 40
4.0
 40
4.0
 10
135.435426205674
 20
133.664158542158
 30
0.0
 10
135.4343153162022
 20
133.5021897392706
 30
0.0
 10
135.5647164199237
 20
133.369987527849
 30
0.0
 10
135.7266852228111
 20
133.3688766383771
 30
0.0
 10
135.7267956242005
 20
133.3688758811713
 30
0.0
 10
135.726906026009
 20
133.3688751863062
 30
0.0
 10
135.7270164281832
 20
133.3688745537822
 30
0.0
 10
135.8889863823605
 20
133.3698025235752
 30
0.0
 10
136.0195367050851
 20
133.5018573826038
 30
0.0
 10
136.0186087352921
 20
133.6638273367811
 30
0.0
 10
136.018608102768
 20
133.6639377389569
 30
0.0
 10
136.0186074079029
 20
133.664048140767
 30
0.0
 10
136.0186066506968
 20
133.664158542158
 30
0.0
  0
SPLINE
  5
20F
330
70
100
AcDbEntity
  8
sugata
 62
     1
420
 16711680
370
    18
100
AcDbSpline
210
0.0
220
0.0
230
1.0
 70
     8
 71
     3
 72
    17
 73
    13
 74
     0
 42
0.0000000001
 43
0.0000000001
 40
0.0
 40
0.0
 40
0.0
 40
0.0
 40
1.0
 40
1.0
 40
1.0
 40
2.0
 40
2.0
 40
2.0
 40
3.0
 40
3.0
 40
3.0
 40
4.0
 40
4.0
 40
4.0
 40
4.0
 10
128.3710963480467
 20
133.664158542158
 30
0.0
 10
128.3699854585767
 20
133.5021897392689
 30
0.0
 10
128.5003865623014
 20
133.3699875278471
 30
0.0
 10
128.6623553651908
 20
133.3688766383768
 30
0.0
 10
128.6624657665799
 20
133.368875881171
 30
0.0
 10
128.662576168388
 20
133.3688751863059
 30
0.0
 10
128.6626865705622
 20
133.3688745537819
 30
0.0
 10
128.8246565247434
 20
133.3698025235788
 30
0.0
 10
128.955206847468
 20
133.5018573826137
 30
0.0
 10
128.9542788776708
 20
133.6638273367946
 30
0.0
 10
128.9542782451468
 20
133.6639377389662
 30
0.0
 10
128.9542775502817
 20
133.6640481407715
 30
0.0
 10
128.9542767930758
 20
133.664158542158
 30
0.0
  0
SPLINE
  5
210
330
70
100
AcDbEntity
  8
sugata
 62
     1
420
 16711680
370
    18
100
AcDbSpline
210
0.0
220
0.0
230
1.0
 70
     8
 71
     3
 72
    17
 73
    13
 74
     0
 42
0.0000000001
 43
0.0000000001
 40
0.0
 40
0.0
 40
0.0
 40
0.0
 40
1.0
 40
1.0
 40
1.0
 40
2.0
 40
2.0
 40
2.0
 40
3.0
 40
3.0
 40
3.0
 40
4.0
 40
4.0
 40
4.0
 40
4.0
 10
113.4682403095924
 20
133.664158542158
 30
0.0
 10
113.4671294201212
 20
133.5021897392703
 30
0.0
 10
113.597530523844
 20
133.3699875278484
 30
0.0
 10
113.7594993267317
 20
133.3688766383775
 30
0.0
 10
113.7596097281224
 20
133.3688758811713
 30
0.0
 10
113.7597201299318
 20
133.3688751863062
 30
0.0
 10
113.759830532107
 20
133.3688745537822
 30
0.0
 10
113.9218004862892
 20
133.3698025235804
 30
0.0
 10
114.0523508090138
 20
133.5018573826163
 30
0.0
 10
114.0514228392159
 20
133.6638273367984
 30
0.0
 10
114.0514222066919
 20
133.6639377389685
 30
0.0
 10
114.0514215118268
 20
133.6640481407727
 30
0.0
 10
114.051420754621
 20
133.664158542158
 30
0.0
  0
SPLINE
  5
211
330
70
100
AcDbEntity
  8
sugata
 62
     1
420
 16711680
370
    18
100
AcDbSpline
210
0.0
220
0.0
230
1.0
 70
     8
 71
     3
 72
    11
 73
     7
 74
     0
 42
0.0000000001
 43
0.0000000001
 40
0.0
 40
0.0
 40
0.0
 40
0.0
 40
1.0
 40
1.0
 40
1.0
 40
2.0
 40
2.0
 40
2.0
 40
2.0
 10
109.9419708076347
 20
133.7763989055036
 30
0.0
 10
109.9404154987527
 20
133.5527196565703
 30
0.0
 10
110.1204775419966
 20
133.3701283787915
 30
0.0
 10
110.3441567255723
 20
133.3685636986057
 30
0.0
 10
110.5678359091472
 20
133.3701283787925
 30
0.0
 10
110.7478979523912
 20
133.5527196565706
 30
0.0
 10
110.7463426435101
 20
133.7763989055036
 30
0.0
  0
LWPOLYLINE
  5
212
330
70
100
AcDbEntity
  8
sugata
 62
     1
420
 16711680
370
    18
100
AcDbPolyline
 90
        4
 70
     1
 43
0.0
 10
115.5496028596994
 20
153.0127671750633
 10
112.5071307479647
 20
153.0127671750633
 10
112.5071307479647
 20
153.5428246945718
 10
115.5496028596994
 20
153.5428246945718
  0
LWPOLYLINE
  5
213
330
70
100
AcDbEntity
  8
sugata
 62
     1
420
 16711680
370
    18
100
AcDbPolyline
 90
        4
 70
     1
 43
0.0
 10
131.6753287914883
 20
153.0127671750633
 10
128.6328566797537
 20
153.0127671750633
 10
128.6328566797537
 20
153.5428246945718
 10
131.6753287914883
 20
153.5428246945718
  0
LINE
  5
214
330
70
100
AcDbEntity
  8
sugata
 62
     1
420
 16711680
370
    18
100
AcDbLine
 10
136.9061177125089
 20
131.1037182611593
 30
0.0
 11
136.9061177125089
 21
130.5230196013886
 31
0.0
  0
LWPOLYLINE
  5
215
330
70
100
AcDbEntity
  8
sugata
 62
     1
420
 16711680
370
    18
100
AcDbPolyline
 90
        5
 70
     1
 43
0.0
 10
178.6104341797206
 20
92.87098738641271
 10
208.293655272188
 20
92.87098738641271
 10
208.293655272188
 20
90.81935237621115
 10
194.9117254445102
 20
90.81891137431069
 10
178.6104341797206
 20
90.82001387906217
  0
LWPOLYLINE
  5
216
330
70
100
AcDbEntity
  8
sugata
 62
     1
420
 16711680
370
    18
100
AcDbPolyline
 90
        4
 70
     1
 43
0.0
 10
195.2795074421847
 20
148.4739387369182
 10
193.9922228945469
 20
148.4739387369182
 10
193.9922228945469
 20
150.7821426842759
 10
195.2795074421847
 20
150.7821426842759
  0
LWPOLYLINE
  5
217
330
70
100
AcDbEntity
  8
sugata
 62
     1
420
 16711680
370
    18
100
AcDbPolyline
 90
        4
 70
     1
 43
0.0
 10
195.2795074421847
 20
116.6172846690601
 10
193.9922228945469
 20
116.6172846690601
 10
193.9922228945469
 20
118.5438014715119
 10
195.2795074421847
 20
118.5438014715119
  0
LWPOLYLINE
  5
218
330
70
100
AcDbEntity
  8
sugata
 62
     1
420
 16711680
370
    18
100
AcDbPolyline
 90
        4
 70
     1
 43
0.0
 10
195.1214126708647
 20
118.5435792065541
 10
194.1505469868552
 20
118.5435792065541
 10
194.1505469868552
 20
148.4739387369182
 10
195.1214126708647
 20
148.4739387369182
  0
LINE
  5
219
330
70
100
AcDbEntity
  8
sugata
 62
     1
420
 16711680
370
    18
100
AcDbLine
 10
178.6205548288054
 20
115.2019974501351
 30
0.0
 11
208.3037759212721
 21
115.2019974501351
 31
0.0
  0
LINE
  5
21A
330
70
100
AcDbEntity
  8
sugata
 62
     1
420
 16711680
370
    18
100
AcDbLine
 10
178.6205548288054
 20
114.3185682509545
 30
0.0
 11
208.3037759212721
 21
114.3185682509545
 31
0.0
  0
LWPOLYLINE
  5
21B
330
70
100
AcDbEntity
  8
sugata
 62
     1
420
 16711680
370
    18
100
AcDbPolyline
 90
        4
 70
     1
 43
0.0
 10
203.3170144969881
 20
90.28929485670301
 10
201.1258965542205
 20
90.28929485670301
 10
201.1258965542205
 20
90.81866797571471
 10
203.3170144969881
 20
90.81866797571471
  0
LWPOLYLINE
  5
21C
330
70
100
AcDbEntity
  8
sugata
 62
     1
420
 16711680
370
    18
100
AcDbPolyline
 90
        4
 70
     1
 43
0.0
 10
185.7781013157192
 20
90.28929485670301
 10
183.5869833729517
 20
90.28929485670301
 10
183.5869833729517
 20
90.81866797571471
 10
185.7781013157192
 20
90.81866797571471
  0
LWPOLYLINE
  5
21D
330
70
100
AcDbEntity
  8
sugata
 62
     1
420
 16711680
370
    18
100
AcDbPolyline
 90
        4
 70
     1
 43
0.0
 10
180.9211182847299
 20
90.64288858083195
 10
179.8254490628705
 20
90.64288858083195
 10
179.8254490628705
 20
90.81889002017218
 10
180.9211182847299
 20
90.81889002017218
  0
LWPOLYLINE
  5
21E
330
70
100
AcDbEntity
  8
sugata
 62
     1
420
 16711680
370
    18
100
AcDbPolyline
 90
        4
 70
     1
 43
0.0
 10
181.0260796035677
 20
90.28929485670301
 10
179.7204934770579
 20
90.28929485670301
 10
179.7204934770579
 20
90.6426665363751
 10
181.0260796035677
 20
90.6426665363751
  0
LWPOLYLINE
  5
21F
330
70
100
AcDbEntity
  8
sugata
 62
     1
420
 16711680
370
    18
100
AcDbPolyline
 90
        4
 70
     1
 43
0.0
 10
207.0040126503508
 20
90.64288858083195
 10
205.9083434284914
 20
90.64288858083195
 10
205.9083434284914
 20
90.81889002017218
 10
207.0040126503508
 20
90.81889002017218
  0
LWPOLYLINE
  5
220
330
70
100
AcDbEntity
  8
sugata
 62
     1
420
 16711680
370
    18
100
AcDbPolyline
 90
        4
 70
     1
 43
0.0
 10
207.10896051863
 20
90.28929485670301
 10
205.8033743921202
 20
90.28929485670301
 10
205.8033743921202
 20
90.6426665363751
 10
207.10896051863
 20
90.6426665363751
  0
LINE
  5
221
330
70
100
AcDbEntity
  8
sugata
 62
     1
420
 16711680
370
    18
100
AcDbLine
 10
178.6104341797206
 20
93.48447098729208
 30
0.0
 11
208.3037759212721
 21
93.48447098729208
 31
0.0
  0
LWPOLYLINE
  5
222
330
70
100
AcDbEntity
  8
sugata
 62
     1
420
 16711680
370
    18
100
AcDbPolyline
 90
        4
 70
     1
 43
0.0
 10
205.150673984684
 20
111.0594299739542
 10
181.7535384326805
 20
111.0594299739542
 10
181.7535384326805
 20
111.7293118608544
 10
205.150673984684
 20
111.7293118608544
  0
LWPOLYLINE
  5
223
330
70
100
AcDbEntity
  8
sugata
 62
     1
420
 16711680
370
    18
100
AcDbPolyline
 90
        4
 70
     1
 43
0.0
 10
180.2003264315107
 20
112.0261065809109
 10
181.7537556261165
 20
112.0261065809109
 10
181.7537556261165
 20
110.7628566368517
 10
180.2003264315107
 20
110.7628566368517
  0
LWPOLYLINE
  5
224
330
70
100
AcDbEntity
  8
sugata
 62
     1
420
 16711680
370
    18
100
AcDbPolyline
 90
        4
 70
     1
 43
0.0
 10
205.150673984684
 20
112.0261065809109
 10
206.7041031792899
 20
112.0261065809109
 10
206.7041031792899
 20
110.7628566368517
 10
205.150673984684
 20
110.7628566368517
  0
LINE
  5
225
330
70
100
AcDbEntity
  8
sugata
 62
     1
420
 16711680
370
    18
100
AcDbLine
 10
193.6388512148748
 20
153.0127671750633
 30
0.0
 11
193.6388512148748
 21
115.2019974501351
 31
0.0
  0
LINE
  5
226
330
70
100
AcDbEntity
  8
sugata
 62
     1
420
 16711680
370
    18
100
AcDbLine
 10
193.2854795352027
 20
153.0127671750633
 30
0.0
 11
193.2854795352027
 21
115.2019974501351
 31
0.0
  0
LWPOLYLINE
  5
227
330
70
100
AcDbEntity
  8
sugata
 62
     1
420
 16711680
370
    18
100
AcDbPolyline
 90
        4
 70
     1
 43
0.0
 10
191.6448233078921
 20
148.4739387369182
 10
192.9321078555299
 20
148.4739387369182
 10
192.9321078555299
 20
150.7821426842759
 10
191.6448233078921
 20
150.7821426842759
  0
LWPOLYLINE
  5
228
330
70
100
AcDbEntity
  8
sugata
 62
     1
420
 16711680
370
    18
100
AcDbPolyline
 90
        4
 70
     1
 43
0.0
 10
191.6448233078921
 20
116.6172846690601
 10
192.9321078555299
 20
116.6172846690601
 10
192.9321078555299
 20
118.5438014715119
 10
191.6448233078921
 20
118.5438014715119
  0
LWPOLYLINE
  5
229
330
70
100
AcDbEntity
  8
sugata
 62
     1
420
 16711680
370
    18
100
AcDbPolyline
 90
        4
 70
     1
 43
0.0
 10
191.8029180792121
 20
118.5435792065541
 10
192.7737837632222
 20
118.5435792065541
 10
192.7737837632222
 20
148.4739387369182
 10
191.8029180792121
 20
148.4739387369182
  0
LWPOLYLINE
  5
22A
330
70
100
AcDbEntity
  8
sugata
 62
     1
420
 16711680
370
    18
100
AcDbPolyline
 90
        4
 70
     1
 43
0.0
 10
238.7577824425677
 20
148.4739387369182
 10
236.6373032751191
 20
148.4739387369182
 10
236.6373032751191
 20
150.7821426842759
 10
238.7577824425677
 20
150.7821426842759
  0
LWPOLYLINE
  5
22B
330
70
100
AcDbEntity
  8
sugata
 62
     1
420
 16711680
370
    18
100
AcDbPolyline
 90
        4
 70
     1
 43
0.0
 10
238.7577824425677
 20
116.6172846690601
 10
236.6373032751191
 20
116.6172846690601
 10
236.6373032751191
 20
118.5438014715119
 10
238.7577824425677
 20
118.5438014715119
  0
LWPOLYLINE
  5
22C
330
70
100
AcDbEntity
  8
sugata
 62
     1
420
 16711680
370
    18
100
AcDbPolyline
 90
        4
 70
     1
 43
0.0
 10
238.7577824425677
 20
110.7628566368517
 10
236.7069031041674
 20
110.7628566368517
 10
236.7069031041674
 20
112.0261065809112
 10
238.7577824425677
 20
112.0261065809112
  0
LWPOLYLINE
  5
22D
330
70
100
AcDbEntity
  8
sugata
 62
     1
420
 16711680
370
    18
100
AcDbPolyline
 90
        4
 70
     1
 43
0.0
 10
237.7662615254391
 20
118.5435792065541
 10
236.7953958414296
 20
118.5435792065541
 10
236.7953958414296
 20
148.4739387369182
 10
237.7662615254391
 20
148.4739387369182
  0
LWPOLYLINE
  5
22E
330
70
100
AcDbEntity
  8
sugata
 62
     1
420
 16711680
370
    18
100
AcDbPolyline
 90
        4
 70
     1
 43
0.0
 10
250.1714386065652
 20
153.0127671750633
 10
241.6905182944315
 20
153.0127671750633
 10
241.6905182944315
 20
151.8466414556046
 10
250.1714386065652
 20
151.8466414556046
  0
LWPOLYLINE
  5
22F
330
70
100
AcDbEntity
  8
sugata
 62
     1
420
 16711680
370
    18
100
AcDbPolyline
 90
        4
 70
     1
 43
0.0
 10
244.5733777600371
 20
90.6426665363751
 10
243.4777085381778
 20
90.6426665363751
 10
243.4777085381778
 20
90.81935237621115
 10
244.5733777600371
 20
90.81935237621115
  0
LWPOLYLINE
  5
230
330
70
100
AcDbEntity
  8
sugata
 62
     1
420
 16711680
370
    18
100
AcDbPolyline
 90
        4
 70
     1
 43
0.0
 10
244.678339078875
 20
90.28929485670301
 10
243.3727529523651
 20
90.28929485670301
 10
243.3727529523651
 20
90.6426665363751
 10
244.678339078875
 20
90.6426665363751
  0
LWPOLYLINE
  5
231
330
70
100
AcDbEntity
  8
sugata
 62
     1
420
 16711680
370
    18
100
AcDbPolyline
 90
        4
 70
     1
 43
0.0
 10
265.2604093285695
 20
90.81935237621115
 10
264.7303518090607
 20
90.81935237621115
 10
264.7303518090607
 20
101.2454492942074
 10
265.2604093285695
 20
101.2454492942074
  0
SPLINE
  5
232
330
70
100
AcDbEntity
  8
sugata
 62
     1
420
 16711680
370
    18
100
AcDbSpline
210
0.0
220
0.0
230
1.0
 70
     8
 71
     3
 72
     8
 73
     4
 74
     0
 42
0.0000000001
 43
0.0000000001
 40
0.0
 40
0.0
 40
0.0
 40
0.0
 40
1.0
 40
1.0
 40
1.0
 40
1.0
 10
265.1150462355048
 20
101.2458883882583
 30
0.0
 10
265.1150462355048
 20
101.2458883882583
 30
0.0
 10
264.9556240484646
 20
106.7890617769307
 30
0.0
 10
265.499820393715
 20
107.9885869463635
 30
0.0
  0
LWPOLYLINE
  5
233
330
70
100
AcDbEntity
  8
sugata
 62
     1
420
 16711680
370
    18
100
AcDbPolyline
 90
        4
 70
     1
 43
0.0
 10
265.6668498635393
 20
107.9277286840911
 10
265.33279092389
 20
108.0494452086362
 10
265.4781010501135
 20
108.7263831259451
 10
265.8121599897629
 20
108.6046666013997
  0
SPLINE
  5
234
330
70
100
AcDbEntity
  8
sugata
 62
     1
420
 16711680
370
    18
100
AcDbSpline
210
0.0
220
0.0
230
1.0
 70
     8
 71
     3
 72
     8
 73
     4
 74
     0
 42
0.0000000001
 43
0.0000000001
 40
0.0
 40
0.0
 40
0.0
 40
0.0
 40
1.0
 40
1.0
 40
1.0
 40
1.0
 10
265.1150462355048
 20
102.1226758583037
 30
0.0
 10
265.1150462355048
 20
102.1226758583037
 30
0.0
 10
266.2608764088873
 20
106.2106134779267
 30
0.0
 10
269.5626576381325
 20
105.5248555226076
 30
0.0
  0
SPLINE
  5
235
330
70
100
AcDbEntity
  8
sugata
 62
     1
420
 16711680
370
    18
100
AcDbSpline
210
0.0
220
0.0
230
1.0
 70
     8
 71
     3
 72
     8
 73
     4
 74
     0
 42
0.0000000001
 43
0.0000000001
 40
0.0
 40
0.0
 40
0.0
 40
0.0
 40
1.0
 40
1.0
 40
1.0
 40
1.0
 10
269.5626576381325
 20
105.5248555226076
 30
0.0
 10
272.8644386468757
 20
104.8393180682384
 30
0.0
 10
275.5234600471048
 20
106.9060734750578
 30
0.0
 10
275.5818925784233
 20
107.7792570175997
 30
0.0
  0
LWPOLYLINE
  5
236
330
70
100
AcDbEntity
  8
sugata
 62
     1
420
 16711680
370
    18
100
AcDbPolyline
 90
        4
 70
     1
 43
0.0
 10
276.2858203288438
 20
107.7793656044125
 10
274.8177250019891
 20
107.8792525348818
 10
274.8777012604609
 20
108.7610358349855
 10
276.3457965873149
 20
108.6611489045159
  0
LINE
  5
237
330
70
100
AcDbEntity
  8
sugata
 62
     1
420
 16711680
370
    18
100
AcDbLine
 10
275.6512071813383
 20
109.4048131764029
 30
0.0
 11
275.5967434466234
 21
108.7119991906752
 31
0.0
  0
LINE
  5
238
330
70
100
AcDbEntity
  8
sugata
 62
     1
420
 16711680
370
    18
100
AcDbLine
 10
276.0769204417589
 20
109.4048131764029
 30
0.0
 11
276.0224567070439
 21
108.7119991906752
 31
0.0
  0
LINE
  5
239
330
70
100
AcDbEntity
  8
sugata
 62
     1
420
 16711680
370
    18
100
AcDbLine
 10
275.2419938089194
 20
109.4291054258675
 30
0.0
 11
275.1875300742045
 21
108.7362914401397
 31
0.0
  0
SPLINE
  5
23A
330
70
100
AcDbEntity
  8
sugata
 62
     1
420
 16711680
370
    18
100
AcDbSpline
210
0.0
220
0.0
230
1.0
 70
     8
 71
     3
 72
     8
 73
     4
 74
     0
 42
0.0000000001
 43
0.0000000001
 40
0.0
 40
0.0
 40
0.0
 40
0.0
 40
1.0
 40
1.0
 40
1.0
 40
1.0
 10
261.6993667627576
 20
90.81934424813027
 30
0.0
 10
261.4372429083833
 20
90.55763264848343
 30
0.0
 10
261.0248034687895
 20
90.28929485670301
 30
0.0
 10
260.4355366016956
 20
90.28929485670301
 30
0.0
  0
SPLINE
  5
23B
330
70
100
AcDbEntity
  8
sugata
 62
     1
420
 16711680
370
    18
100
AcDbSpline
210
0.0
220
0.0
230
1.0
 70
     8
 71
     3
 72
     8
 73
     4
 74
     0
 42
0.0000000001
 43
0.0000000001
 40
0.0
 40
0.0
 40
0.0
 40
0.0
 40
1.0
 40
1.0
 40
1.0
 40
1.0
 10
260.4355366016956
 20
90.28929485670301
 30
0.0
 10
259.8239502588868
 20
90.28929485670301
 30
0.0
 10
259.402840301528
 20
90.56300724037727
 30
0.0
 10
259.1425667994631
 20
90.8193373916537
 30
0.0
  0
SPLINE
  5
23C
330
70
100
AcDbEntity
  8
sugata
 62
     1
420
 16711680
370
    18
100
AcDbSpline
210
0.0
220
0.0
230
1.0
 70
     8
 71
     3
 72
     8
 73
     4
 74
     0
 42
0.0000000001
 43
0.0000000001
 40
0.0
 40
0.0
 40
0.0
 40
0.0
 40
1.0
 40
1.0
 40
1.0
 40
1.0
 10
250.2844250646455
 20
90.81931363710067
 30
0.0
 10
250.0222997093571
 20
90.55761172487171
 30
0.0
 10
249.609869456122
 20
90.28929485670301
 30
0.0
 10
249.020625563488
 20
90.28929485670301
 30
0.0
  0
SPLINE
  5
23D
330
70
100
AcDbEntity
  8
sugata
 62
     1
420
 16711680
370
    18
100
AcDbSpline
210
0.0
220
0.0
230
1.0
 70
     8
 71
     3
 72
     8
 73
     4
 74
     0
 42
0.0000000001
 43
0.0000000001
 40
0.0
 40
0.0
 40
0.0
 40
0.0
 40
1.0
 40
1.0
 40
1.0
 40
1.0
 10
249.020625563488
 20
90.28929485670301
 30
0.0
 10
248.4090635657617
 20
90.28929485670301
 30
0.0
 10
247.9879627894085
 20
90.56298544977305
 30
0.0
 10
247.7276868437138
 20
90.81930678078965
 30
0.0
  0
LINE
  5
23E
330
70
100
AcDbEntity
  8
sugata
 62
     1
420
 16711680
370
    18
100
AcDbLine
 10
239.4391498096664
 20
93.47522751688135
 30
0.0
 11
239.4391498096664
 21
114.3185867209237
 31
0.0
  0
LINE
  5
23F
330
70
100
AcDbEntity
  8
sugata
 62
     1
420
 16711680
370
    18
100
AcDbLine
 10
239.4391363513567
 20
115.197620555203
 30
0.0
 11
239.4391363513567
 21
153.0127715178986
 31
0.0
  0
LWPOLYLINE
  5
241
330
70
100
AcDbEntity
  8
sakuzu
 62
     5
420
      255
370
    25
100
AcDbPolyline
 90
        4
 70
     0
 43
0.0
 10
136.9617756810515
 20
131.1037182611593
 10
136.9617756810515
 20
127.6503261269025
 10
122.3850230983391
 20
127.0397452473234
 10
122.3850230983391
 20
131.1037855247032
  0
LWPOLYLINE
  5
242
330
70
100
AcDbEntity
  8
sakuzu
 62
     5
420
      255
370
    25
100
AcDbPolyline
 90
        4
 70
     0
 43
0.0
 10
107.4550696321874
 20
131.1037230353854
 10
107.4550696321874
 20
127.6503261269025
 10
122.0316514186667
 20
127.0399487191549
 10
122.0316514186667
 20
131.1037855247032
  0
LWPOLYLINE
  5
243
330
70
100
AcDbEntity
  8
sakuzu
 62
     5
420
      255
370
    25
100
AcDbPolyline
 90
        4
 70
     1
 43
0.0
 10
121.6782797389946
 20
124.9197186411214
 10
120.4061416921745
 20
124.9197186411214
 10
120.4061416921745
 20
127.0399487191549
 10
121.6782797389946
 20
127.0399487191549
  0
LWPOLYLINE
  5
244
330
70
100
AcDbEntity
  8
sakuzu
 62
     5
420
      255
370
    25
100
AcDbPolyline
 90
        4
 70
     1
 43
0.0
 10
149.6248026464906
 20
117.1883041247657
 10
149.1606207558174
 20
117.8135777445913
 10
149.9266460400715
 20
118.3994450325099
 10
150.3910447030875
 20
117.7741565634647
  0
LWPOLYLINE
  5
245
330
70
100
AcDbEntity
  8
sakuzu
 62
     5
420
      255
370
    25
100
AcDbPolyline
 90
        4
 70
     1
 43
0.0
 10
145.2422214973888
 20
114.6725400595635
 10
135.8785820173821
 20
124.6338746006139
 10
137.1430219155392
 20
126.7824328633538
 10
147.4758771751683
 20
115.6931992167028
  0
LWPOLYLINE
  5
246
330
70
100
AcDbEntity
  8
sakuzu
 62
     5
420
      255
370
    25
100
AcDbPolyline
 90
        3
 70
     0
 43
0.0
 10
137.1626308278036
 20
127.4421539299695
 10
136.9788158721904
 20
126.9843201224004
 10
137.2822112652234
 20
126.6316258442268
  0
LWPOLYLINE
  5
247
330
70
100
AcDbEntity
  8
sakuzu
 62
     5
420
      255
370
    25
100
AcDbPolyline
 90
        3
 70
     0
 43
0.0
 10
147.4198317456929
 20
115.7535145971648
 10
147.6870032129834
 20
115.5015247914015
 10
148.0386239852019
 20
115.620743773314
  0
LWPOLYLINE
  5
248
330
70
100
AcDbEntity
  8
sakuzu
 62
     5
420
      255
370
    25
100
AcDbPolyline
 90
        7
 70
     0
 43
0.0
 10
149.6539947139515
 20
116.5331947605446
 10
148.4021849242506
 20
115.1826235545344
 10
136.9617756810515
 20
127.6503261269025
 10
137.0124118053499
 20
127.9857379976338
 10
137.01227711498
 20
128.2444809756313
 10
137.415480015688
 20
128.5762132914792
 10
138.3462583832179
 20
129.2176567952085
  0
SPLINE
  5
249
330
70
100
AcDbEntity
  8
sakuzu
 62
     5
420
      255
370
    25
100
AcDbSpline
210
0.0
220
0.0
230
1.0
 70
     8
 71
     3
 72
     8
 73
     4
 74
     0
 42
0.0000000001
 43
0.0000000001
 40
0.0
 40
0.0
 40
0.0
 40
0.0
 40
1.0
 40
1.0
 40
1.0
 40
1.0
 10
138.3462583832179
 20
129.2176567952085
 30
0.0
 10
139.112731933411
 20
130.1756954762616
 30
0.0
 10
150.517495276795
 20
117.3497754451807
 30
0.0
 10
149.6539947139515
 20
116.5331947605446
 30
0.0
  0
LWPOLYLINE
  5
24A
330
70
100
AcDbEntity
  8
sakuzu
 62
     5
420
      255
370
    25
100
AcDbPolyline
 90
        4
 70
     1
 43
0.0
 10
122.7383947780112
 20
124.9197186411214
 10
124.010532824831
 20
124.9197186411214
 10
124.010532824831
 20
127.0399487191549
 10
122.7383947780112
 20
127.0399487191549
  0
LWPOLYLINE
  5
24B
330
70
100
AcDbEntity
  8
sakuzu
 62
     5
420
      255
370
    25
100
AcDbPolyline
 90
        4
 70
     0
 43
0.0
 10
107.4550696321874
 20
131.1037230353854
 10
107.4550696321874
 20
153.0127671750633
 10
136.9616048848184
 20
153.0127671750633
 10
136.9617756810515
 20
131.1037182611593
  0
LWPOLYLINE
  5
24C
330
70
100
AcDbEntity
  8
sakuzu
 62
     5
420
      255
370
    25
100
AcDbPolyline
 90
        4
 70
     1
 43
0.0
 10
94.79187187051531
 20
117.1883041247657
 10
95.25605376118816
 20
117.8135777445913
 10
94.49002847693472
 20
118.3994450325099
 10
94.02562981391834
 20
117.7741565634647
  0
LWPOLYLINE
  5
24D
330
70
100
AcDbEntity
  8
sakuzu
 62
     5
420
      255
370
    25
100
AcDbPolyline
 90
        4
 70
     1
 43
0.0
 10
99.17445301961679
 20
114.6725400595635
 10
108.5380924996238
 20
124.6338746006139
 10
107.2736526014663
 20
126.7824328633538
 10
96.94079734183752
 20
115.6931992167028
  0
LWPOLYLINE
  5
24E
330
70
100
AcDbEntity
  8
sakuzu
 62
     5
420
      255
370
    25
100
AcDbPolyline
 90
        3
 70
     0
 43
0.0
 10
107.2540436892022
 20
127.4421539299695
 10
107.4378586448151
 20
126.9843201224004
 10
107.1344632517821
 20
126.6316258442268
  0
LWPOLYLINE
  5
24F
330
70
100
AcDbEntity
  8
sakuzu
 62
     5
420
      255
370
    25
100
AcDbPolyline
 90
        3
 70
     0
 43
0.0
 10
96.9968427713127
 20
115.7535145971648
 10
96.72967130402248
 20
115.5015247914015
 10
96.378050531804
 20
115.620743773314
  0
LWPOLYLINE
  5
250
330
70
100
AcDbEntity
  8
sakuzu
 62
     5
420
      255
370
    25
100
AcDbPolyline
 90
        7
 70
     0
 43
0.0
 10
94.76267980305442
 20
116.5331947605446
 10
96.01448959275529
 20
115.1826235545344
 10
107.4548988359543
 20
127.6503261269025
 10
107.4042627116559
 20
127.9857379976338
 10
107.4043974020258
 20
128.2444809756313
 10
107.0011945013178
 20
128.5762132914792
 10
106.070416133788
 20
129.2176567952085
  0
SPLINE
  5
251
330
70
100
AcDbEntity
  8
sakuzu
 62
     5
420
      255
370
    25
100
AcDbSpline
210
0.0
220
0.0
230
1.0
 70
     8
 71
     3
 72
     8
 73
     4
 74
     0
 42
0.0000000001
 43
0.0000000001
 40
0.0
 40
0.0
 40
0.0
 40
0.0
 40
1.0
 40
1.0
 40
1.0
 40
1.0
 10
106.070416133788
 20
129.2176567952085
 30
0.0
 10
105.3039425835948
 20
130.1756954762616
 30
0.0
 10
93.89917924021059
 20
117.3497754451807
 30
0.0
 10
94.76267980305442
 20
116.5331947605446
 30
0.0
  0
LWPOLYLINE
  5
252
330
70
100
AcDbEntity
  8
sakuzu
 62
     5
420
      255
370
    25
100
AcDbPolyline
 90
        5
 70
     1
 43
0.0
 10
178.6205548288054
 20
153.0127671750633
 10
208.3037759212721
 20
153.0127671750633
 10
208.3037759212721
 20
92.92128109587363
 10
194.9222868749941
 20
92.87100754071646
 10
178.6205548288054
 20
92.94024395709541
  0
CIRCLE
  5
253
330
70
100
AcDbEntity
  8
sakuzu
100
AcDbCircle
 10
202.9930800771044
 20
101.2438169265419
 30
0.0
 40
0.4417145995903662
  0
HATCH
  5
254
330
70
100
AcDbEntity
  8
sakuzu
 62
     5
420
      255
440
 33554687
100
AcDbHatch
 10
0.0
 20
0.0
 30
0.0
210
0.0
220
0.0
230
1.0
  2
SOLID
 70
     1
 71
     1
 91
        1
 92
        1
 93
        1
 72
     2
 10
202.9930800771044
 20
101.2438169265419
 40
0.4417145995903662
 50
0.0
 51
360.0
 73
     1
 97
        1
330
253
 75
     0
 76
     1
 98
        1
 10
0.0
 20
0.0
450
        0
451
        0
460
0.0
461
0.0
452
        0
462
0.0
453
        0
470

  0
CIRCLE
  5
255
330
70
100
AcDbEntity
  8
sakuzu
 62
     5
420
      255
370
    25
100
AcDbCircle
 10
202.9930800771044
 20
101.2438169265419
 30
0.0
 40
0.4417145995903662
  0
CIRCLE
  5
256
330
70
100
AcDbEntity
  8
sakuzu
100
AcDbCircle
 10
206.5369175229109
 20
113.7878271544096
 30
0.0
 40
0.4417145995904063
  0
HATCH
  5
257
330
70
100
AcDbEntity
  8
sakuzu
 62
     5
420
      255
440
 33554687
100
AcDbHatch
 10
0.0
 20
0.0
 30
0.0
210
0.0
220
0.0
230
1.0
  2
SOLID
 70
     1
 71
     1
 91
        1
 92
        1
 93
        1
 72
     2
 10
206.5369175229109
 20
113.7878271544096
 40
0.4417145995904063
 50
0.0
 51
360.0
 73
     1
 97
        1
330
256
 75
     0
 76
     1
 98
        1
 10
0.0
 20
0.0
450
        0
451
        0
460
0.0
461
0.0
452
        0
462
0.0
453
        0
470

  0
CIRCLE
  5
258
330
70
100
AcDbEntity
  8
sakuzu
 62
     5
420
      255
370
    25
100
AcDbCircle
 10
206.5369175229109
 20
113.7878271544096
 30
0.0
 40
0.4417145995904063
  0
LWPOLYLINE
  5
259
330
70
100
AcDbEntity
  8
sakuzu
 62
     5
420
      255
370
    25
100
AcDbPolyline
 90
        4
 70
     1
 43
0.0
 10
238.7575806187367
 20
114.3185682509545
 10
242.2797521675452
 20
114.3185682509545
 10
242.2797521675452
 20
93.47895712206478
 10
238.7575806187367
 20
93.48579397452857
  0
LWPOLYLINE
  5
25A
330
70
100
AcDbEntity
  8
sakuzu
 62
     5
420
      255
370
    25
100
AcDbPolyline
 90
        6
 70
     0
 43
0.0
 10
242.2797049019601
 20
151.8466414556046
 10
242.2797049019601
 20
115.1900901783201
 10
241.1955017295153
 20
115.1863421031674
 10
238.7575333531523
 20
115.2019974501351
 10
238.7575333531523
 20
153.0127671750633
 10
241.6905182944315
 20
153.0127671750633
  0
LWPOLYLINE
  5
25B
330
70
100
AcDbEntity
  8
sakuzu
 62
     5
420
      255
370
    25
100
AcDbPolyline
 90
        4
 70
     1
 43
0.0
 10
242.8213076693828
 20
151.8466414556046
 10
264.7303518090607
 20
151.8466414556046
 10
264.7303518090607
 20
90.81935237621115
 10
242.8213076693828
 20
90.81935237621115
  0
LINE
  5
25D
330
70
100
AcDbEntity
  8
kaiko
  6
AI-Linetype-0
 62
     4
420
    65535
370
    18
100
AcDbLine
 10
131.7693752320598
 20
113.1063892961089
 30
0.0
 11
131.6709444771351
 21
126.8938825850716
 31
0.0
  0
LINE
  5
25F
330
70
100
AcDbEntity
  8
kaiko
  6
AI-Linetype-1
 62
     4
420
    65535
370
    18
100
AcDbLine
 10
131.6709444771351
 20
126.8938825850716
 30
0.0
 11
134.0410119117304
 21
127.5809810832369
 31
0.0
  0
LINE
  5
261
330
70
100
AcDbEntity
  8
kaiko
  6
AI-Linetype-2
 62
     4
420
    65535
370
    18
100
AcDbLine
 10
134.0410119117304
 20
127.5809810832369
 30
0.0
 11
134.0835366237611
 21
112.2967567752562
 31
0.0
  0
LINE
  5
263
330
70
100
AcDbEntity
  8
kaiko
  6
AI-Linetype-3
 62
     4
420
    65535
370
    18
100
AcDbLine
 10
134.0835366237611
 20
112.2967567752562
 30
0.0
 11
131.7693752320598
 21
113.1063892961089
 31
0.0
  0
LINE
  5
265
330
70
100
AcDbEntity
  8
kaiko
  6
AI-Linetype-4
 62
     4
420
    65535
370
    18
100
AcDbLine
 10
134.4954703121643
 20
111.4999735950115
 30
0.0
 11
134.495470312164
 21
126.8672557489484
 31
0.0
  0
LINE
  5
267
330
70
100
AcDbEntity
  8
kaiko
  6
AI-Linetype-5
 62
     4
420
    65535
370
    18
100
AcDbLine
 10
134.495470312164
 20
126.8672557489484
 30
0.0
 11
135.8636931828419
 21
128.0390349745421
 31
0.0
  0
LINE
  5
269
330
70
100
AcDbEntity
  8
kaiko
  6
AI-Linetype-6
 62
     4
420
    65535
370
    18
100
AcDbLine
 10
135.8636931828419
 20
128.0390349745421
 30
0.0
 11
136.9555468690373
 21
126.937487646742
 31
0.0
  0
LINE
  5
26B
330
70
100
AcDbEntity
  8
kaiko
  6
AI-Linetype-7
 62
     4
420
    65535
370
    18
100
AcDbLine
 10
136.9555468690373
 20
111.4892734428307
 30
0.0
 11
134.4954703121643
 21
111.4999735950115
 31
0.0
  0
LINE
  5
26D
330
70
100
AcDbEntity
  8
kaiko
  6
AI-Linetype-8
 62
     4
420
    65535
370
    18
100
AcDbLine
 10
136.9555468690373
 20
112.1231530875628
 30
0.0
 11
136.9616894846561
 21
112.9067818953631
 31
0.0
  0
LINE
  5
26F
330
70
100
AcDbEntity
  8
kaiko
  6
AI-Linetype-9
 62
     4
420
    65535
370
    18
100
AcDbLine
 10
136.9616894846561
 20
112.9067818953631
 30
0.0
 11
137.9201219499839
 21
112.8984078724511
 31
0.0
  0
LINE
  5
271
330
70
100
AcDbEntity
  8
kaiko
  6
AI-Linetype-10
 62
     4
420
    65535
370
    18
100
AcDbLine
 10
137.9201219499839
 20
112.8984078724511
 30
0.0
 11
137.9139793343654
 21
112.1147790646508
 31
0.0
  0
LINE
  5
273
330
70
100
AcDbEntity
  8
kaiko
  6
AI-Linetype-11
 62
     4
420
    65535
370
    18
100
AcDbLine
 10
137.9139793343654
 20
112.1147790646508
 30
0.0
 11
136.9555468690373
 21
112.1231530875628
 31
0.0
  0
LINE
  5
275
330
70
100
AcDbEntity
  8
kaiko
  6
AI-Linetype-12
 62
     4
420
    65535
370
    18
100
AcDbLine
 10
134.0832482188682
 20
112.3797364718577
 30
0.0
 11
134.1077372763202
 21
112.0101571622206
 31
0.0
  0
LINE
  5
277
330
70
100
AcDbEntity
  8
kaiko
  6
AI-Linetype-13
 62
     4
420
    65535
370
    18
100
AcDbLine
 10
134.1077372763202
 20
112.0101571622206
 30
0.0
 11
134.4437333476018
 21
111.8523876828697
 31
0.0
  0
LINE
  5
279
330
70
100
AcDbEntity
  8
kaiko
  6
AI-Linetype-14
 62
     4
420
    65535
370
    18
100
AcDbLine
 10
136.9555468690373
 20
111.4892734428307
 30
0.0
 11
136.9555468690373
 21
126.937487646742
 31
0.0
  0
LINE
  5
27B
330
70
100
AcDbEntity
  8
kaiko
  6
AI-Linetype-15
 62
     4
420
    65535
370
    18
100
AcDbLine
 10
112.647299284946
 20
113.1063892961089
 30
0.0
 11
112.7457300398707
 21
126.8938825850716
 31
0.0
  0
LINE
  5
27D
330
70
100
AcDbEntity
  8
kaiko
  6
AI-Linetype-16
 62
     4
420
    65535
370
    18
100
AcDbLine
 10
112.7457300398707
 20
126.8938825850716
 30
0.0
 11
110.3756626052755
 21
127.5809810832369
 31
0.0
  0
LINE
  5
27F
330
70
100
AcDbEntity
  8
kaiko
  6
AI-Linetype-17
 62
     4
420
    65535
370
    18
100
AcDbLine
 10
110.3756626052755
 20
127.5809810832369
 30
0.0
 11
110.3331378932448
 21
112.2967567752562
 31
0.0
  0
LINE
  5
281
330
70
100
AcDbEntity
  8
kaiko
  6
AI-Linetype-18
 62
     4
420
    65535
370
    18
100
AcDbLine
 10
110.3331378932448
 20
112.2967567752562
 30
0.0
 11
112.647299284946
 21
113.1063892961089
 31
0.0
  0
LINE
  5
283
330
70
100
AcDbEntity
  8
kaiko
  6
AI-Linetype-19
 62
     4
420
    65535
370
    18
100
AcDbLine
 10
109.9212042048419
 20
111.4999735950115
 30
0.0
 11
109.9212042048419
 21
126.8672557489484
 31
0.0
  0
LINE
  5
285
330
70
100
AcDbEntity
  8
kaiko
  6
AI-Linetype-20
 62
     4
420
    65535
370
    18
100
AcDbLine
 10
109.9212042048419
 20
126.8672557489484
 30
0.0
 11
108.552981334164
 21
128.0390349745421
 31
0.0
  0
LINE
  5
287
330
70
100
AcDbEntity
  8
kaiko
  6
AI-Linetype-21
 62
     4
420
    65535
370
    18
100
AcDbLine
 10
108.552981334164
 20
128.0390349745421
 30
0.0
 11
107.4611276479683
 21
126.937487646742
 31
0.0
  0
LINE
  5
289
330
70
100
AcDbEntity
  8
kaiko
  6
AI-Linetype-22
 62
     4
420
    65535
370
    18
100
AcDbLine
 10
107.4611276479683
 20
111.4892734428307
 30
0.0
 11
109.9212042048419
 21
111.4999735950115
 31
0.0
  0
LINE
  5
28B
330
70
100
AcDbEntity
  8
kaiko
  6
AI-Linetype-23
 62
     4
420
    65535
370
    18
100
AcDbLine
 10
107.4611276479683
 20
112.1231530875628
 30
0.0
 11
107.4549850323498
 21
112.9067818953631
 31
0.0
  0
LINE
  5
28D
330
70
100
AcDbEntity
  8
kaiko
  6
AI-Linetype-24
 62
     4
420
    65535
370
    18
100
AcDbLine
 10
107.4549850323498
 20
112.9067818953631
 30
0.0
 11
106.4965525670216
 21
112.8984078724511
 31
0.0
  0
LINE
  5
28F
330
70
100
AcDbEntity
  8
kaiko
  6
AI-Linetype-25
 62
     4
420
    65535
370
    18
100
AcDbLine
 10
106.4965525670216
 20
112.8984078724511
 30
0.0
 11
106.5026951826404
 21
112.1147790646508
 31
0.0
  0
LINE
  5
291
330
70
100
AcDbEntity
  8
kaiko
  6
AI-Linetype-26
 62
     4
420
    65535
370
    18
100
AcDbLine
 10
106.5026951826404
 20
112.1147790646508
 30
0.0
 11
107.4611276479683
 21
112.1231530875628
 31
0.0
  0
LINE
  5
293
330
70
100
AcDbEntity
  8
kaiko
  6
AI-Linetype-27
 62
     4
420
    65535
370
    18
100
AcDbLine
 10
110.3334262981377
 20
112.3797364718577
 30
0.0
 11
110.3089372406856
 21
112.0101571622206
 31
0.0
  0
LINE
  5
295
330
70
100
AcDbEntity
  8
kaiko
  6
AI-Linetype-28
 62
     4
420
    65535
370
    18
100
AcDbLine
 10
110.3089372406856
 20
112.0101571622206
 30
0.0
 11
109.972941169404
 21
111.8523876828697
 31
0.0
  0
LINE
  5
297
330
70
100
AcDbEntity
  8
kaiko
  6
AI-Linetype-29
 62
     4
420
    65535
370
    18
100
AcDbLine
 10
107.4611276479683
 20
111.4892734428307
 30
0.0
 11
107.4611276479683
 21
126.937487646742
 31
0.0
  0
INSERT
  5
29B
330
70
100
AcDbEntity
  8
sunpo
100
AcDbBlockReference
  2
Block_17
 10
0.0
 20
0.0
 30
0.0
  0
INSERT
  5
2A3
330
70
100
AcDbEntity
  8
sunpo
100
AcDbBlockReference
  2
Block_18
 10
0.0
 20
0.0
 30
0.0
  0
INSERT
  5
2B0
330
70
100
AcDbEntity
  8
sunpo
100
AcDbBlockReference
  2
Block_20
 10
0.0
 20
0.0
 30
0.0
  0
INSERT
  5
2B8
330
70
100
AcDbEntity
  8
sunpo
100
AcDbBlockReference
  2
Block_21
 10
0.0
 20
0.0
 30
0.0
  0
INSERT
  5
2C0
330
70
100
AcDbEntity
  8
sunpo
100
AcDbBlockReference
  2
Block_22
 10
0.0
 20
0.0
 30
0.0
  0
INSERT
  5
2C8
330
70
100
AcDbEntity
  8
sunpo
100
AcDbBlockReference
  2
Block_23
 10
0.0
 20
0.0
 30
0.0
  0
INSERT
  5
2D0
330
70
100
AcDbEntity
  8
sunpo
100
AcDbBlockReference
  2
Block_24
 10
0.0
 20
0.0
 30
0.0
  0
INSERT
  5
2D8
330
70
100
AcDbEntity
  8
sunpo
100
AcDbBlockReference
  2
Block_25
 10
0.0
 20
0.0
 30
0.0
  0
INSERT
  5
2E0
330
70
100
AcDbEntity
  8
sunpo
100
AcDbBlockReference
  2
Block_26
 10
0.0
 20
0.0
 30
0.0
  0
INSERT
  5
2E8
330
70
100
AcDbEntity
  8
sunpo
100
AcDbBlockReference
  2
Block_27
 10
0.0
 20
0.0
 30
0.0
  0
LINE
  5
2F4
330
70
100
AcDbEntity
  8
sunpo
 62
     8
420
  8421504
370
    15
100
AcDbLine
 10
209.0003986315322
 20
90.28929485670301
 30
0.0
 11
219.4942346183371
 21
90.28929485670301
 31
0.0
  0
MTEXT
  5
2F5
330
70
100
AcDbEntity
  8
sunpo
100
AcDbMText
 10
214.3451206942978
 20
86.45694281218025
 30
0.0
 40
0.2
 41
0.0
 46
0.0
 71
     7
 72
     1
  1
\C8;\c8421504;\FKozGoPr6N-Regular|b0|i0|c128;\H1.766858;\W1.000000;15
 73
     1
 44
1.0
  0
LWPOLYLINE
  5
2F6
330
70
100
AcDbEntity
  8
sunpo
 62
     8
420
  8421504
370
    15
100
AcDbPolyline
 90
        3
 70
     0
 43
0.0
 10
219.4942346183371
 20
90.5543236164574
 10
221.6993305920724
 20
86.33860814242146
 10
214.8543639334759
 20
86.33860814242146
  0
MTEXT
  5
2F7
330
70
100
AcDbEntity
  8
sunpo
100
AcDbMText
 10
217.7280752697325
 20
87.81462802810874
 30
0.0
 40
0.2
 41
0.0
 46
0.0
 71
     7
 72
     1
  1
\C8;\c8421504;\FKozGoPr6N-Regular|b0|i0|c128;\H1.060115;\W1.000000;-0
 73
     1
 44
1.0
  0
MTEXT
  5
2F8
330
70
100
AcDbEntity
  8
sunpo
100
AcDbMText
 10
217.7280752697325
 20
86.36885064403008
 30
0.0
 40
0.2
 41
0.0
 46
0.0
 71
     7
 72
     1
  1
\C8;\c8421504;\FKozGoPr6N-Regular|b0|i0|c128;\H1.060115;\W1.000000;+20
 73
     1
 44
1.0
  0
MTEXT
  5
2F9
330
70
100
AcDbEntity
  8
sunpo
100
AcDbMText
 10
193.2348890033406
 20
86.68902920569049
 30
0.0
 40
0.2
 41
0.0
 46
0.0
 71
     7
 72
     1
  1
\C8;\c8421504;\FArial Unicode MS|b0|i0|c129;\H1.766858;\W1.000000;④
 73
     1
 44
1.0
  0
LWPOLYLINE
  5
2FA
330
70
100
AcDbEntity
  8
sunpo
 62
     8
420
  8421504
370
    15
100
AcDbPolyline
 90
        4
 70
     0
 43
0.0
 10
184.6825423443355
 20
90.2872059770198
 10
186.0837023800824
 20
86.02940280780185
 10
201.2695219068853
 20
86.02940280780185
 10
202.3374285461493
 20
90.2872059770198
  0
MTEXT
  5
2FB
330
70
100
AcDbEntity
  8
sunpo
100
AcDbMText
 10
179.9315666596612
 20
87.21878261504969
 30
0.0
 40
0.2
 41
0.0
 46
0.0
 71
     7
 72
     1
  1
\C8;\c8421504;\FArial Unicode MS|b0|i0|c129;\H1.766858;\W1.000000;③
 73
     1
 44
1.0
  0
MTEXT
  5
2FC
330
70
100
AcDbEntity
  8
sunpo
100
AcDbMText
 10
206.0144491740281
 20
87.21878261504969
 30
0.0
 40
0.2
 41
0.0
 46
0.0
 71
     7
 72
     1
  1
\C8;\c8421504;\FArial Unicode MS|b0|i0|c129;\H1.766858;\W1.000000;③
 73
     1
 44
1.0
  0
INSERT
  5
2FE
330
70
100
AcDbEntity
  8
sunpo
100
AcDbBlockReference
  2
Block_29
 10
0.0
 20
0.0
 30
0.0
  0
INSERT
  5
306
330
70
100
AcDbEntity
  8
sunpo
100
AcDbBlockReference
  2
Block_30
 10
0.0
 20
0.0
 30
0.0
  0
INSERT
  5
310
330
70
100
AcDbEntity
  8
sunpo
100
AcDbBlockReference
  2
Block_31
 10
0.0
 20
0.0
 30
0.0
  0
INSERT
  5
318
330
70
100
AcDbEntity
  8
sunpo
100
AcDbBlockReference
  2
Block_32
 10
0.0
 20
0.0
 30
0.0
  0
INSERT
  5
320
330
70
100
AcDbEntity
  8
sunpo
100
AcDbBlockReference
  2
Block_33
 10
0.0
 20
0.0
 30
0.0
  0
INSERT
  5
328
330
70
100
AcDbEntity
  8
sunpo
100
AcDbBlockReference
  2
Block_34
 10
0.0
 20
0.0
 30
0.0
  0
LINE
  5
32F
330
70
100
AcDbEntity
  8
sunpo
 62
     8
420
  8421504
370
    15
100
AcDbLine
 10
209.6805748893268
 20
106.2082067302481
 30
0.0
 11
202.9930800771046
 21
101.2438169265419
 31
0.0
  0
MTEXT
  5
330
330
70
100
AcDbEntity
  8
sunpo
100
AcDbMText
 10
210.1286683299006
 20
106.0119615077852
 30
0.0
 40
0.2
 41
0.0
 46
0.0
 71
     7
 72
     1
  1
\C8;\c8421504;\FArial Unicode MS|b0|i0|c129;\H1.766858;\W1.000000;①
 73
     1
 44
1.0
  0
INSERT
  5
332
330
70
100
AcDbEntity
  8
sunpo
100
AcDbBlockReference
  2
Block_35
 10
0.0
 20
0.0
 30
0.0
  0
LINE
  5
33B
330
70
100
AcDbEntity
  8
sunpo
 62
     8
420
  8421504
370
    15
100
AcDbLine
 10
210.0518128899578
 20
116.4000905918554
 30
0.0
 11
206.5369175229109
 21
113.7878271544096
 31
0.0
  0
MTEXT
  5
33C
330
70
100
AcDbEntity
  8
sunpo
100
AcDbMText
 10
210.5521136287313
 20
116.2129430692269
 30
0.0
 40
0.2
 41
0.0
 46
0.0
 71
     7
 72
     1
  1
\C8;\c8421504;\FArial Unicode MS|b0|i0|c129;\H1.766858;\W1.000000;②
 73
     1
 44
1.0
  0
INSERT
  5
33E
330
70
100
AcDbEntity
  8
sunpo
100
AcDbBlockReference
  2
Block_36
 10
0.0
 20
0.0
 30
0.0
  0
INSERT
  5
346
330
70
100
AcDbEntity
  8
sunpo
100
AcDbBlockReference
  2
Block_37
 10
0.0
 20
0.0
 30
0.0
  0
INSERT
  5
34E
330
70
100
AcDbEntity
  8
sunpo
100
AcDbBlockReference
  2
Block_38
 10
0.0
 20
0.0
 30
0.0
  0
MTEXT
  5
357
330
70
100
AcDbEntity
  8
sunpo
100
AcDbMText
 10
266.3734479450169
 20
109.9138012929154
 30
0.0
 40
0.2
 41
0.0
 46
0.0
 71
     7
 72
     1
  1
\C8;\c8421504;\FArial Unicode MS|b0|i0|c129;\H1.766858;\W1.000000;②
 73
     1
 44
1.0
  0
MTEXT
  5
358
330
70
100
AcDbEntity
  8
sunpo
100
AcDbMText
 10
269.1916006474916
 20
102.1412567731029
 30
0.0
 40
0.2
 41
0.0
 46
0.0
 71
     7
 72
     1
  1
\C8;\c8421504;\FArial Unicode MS|b0|i0|c129;\H1.766858;\W1.000000;①
 73
     1
 44
1.0
  0
INSERT
  5
35A
330
70
100
AcDbEntity
  8
sunpo
100
AcDbBlockReference
  2
Block_39
 10
0.0
 20
0.0
 30
0.0
  0
INSERT
  5
364
330
70
100
AcDbEntity
  8
sunpo
100
AcDbBlockReference
  2
Block_40
 10
0.0
 20
0.0
 30
0.0
  0
INSERT
  5
36C
330
70
100
AcDbEntity
  8
sunpo
100
AcDbBlockReference
  2
Block_41
 10
0.0
 20
0.0
 30
0.0
  0
INSERT
  5
374
330
70
100
AcDbEntity
  8
sunpo
100
AcDbBlockReference
  2
Block_42
 10
0.0
 20
0.0
 30
0.0
  0
INSERT
  5
37C
330
70
100
AcDbEntity
  8
sunpo
100
AcDbBlockReference
  2
Block_43
 10
0.0
 20
0.0
 30
0.0
  0
INSERT
  5
38A
330
70
100
AcDbEntity
  8
sunpo
100
AcDbBlockReference
  2
Block_45
 10
0.0
 20
0.0
 30
0.0
  0
MTEXT
  5
397
330
70
100
AcDbEntity
  8
sunpo
100
AcDbMText
 10
254.2563581042962
 20
86.68902920569049
 30
0.0
 40
0.2
 41
0.0
 46
0.0
 71
     7
 72
     1
  1
\C8;\c8421504;\FArial Unicode MS|b0|i0|c129;\H1.766858;\W1.000000;④
 73
     1
 44
1.0
  0
LWPOLYLINE
  5
398
330
70
100
AcDbEntity
  8
sunpo
 62
     8
420
  8421504
370
    15
100
AcDbPolyline
 90
        4
 70
     0
 43
0.0
 10
249.07638668019
 20
90.2872059770198
 10
250.4775467159369
 20
86.02940280780185
 10
258.9185876391858
 20
86.03149168748441
 10
260.4355366016956
 20
90.28929485670301
  0
LINE
  5
399
330
70
100
AcDbEntity
  8
sunpo
 62
     8
420
  8421504
370
    15
100
AcDbLine
 10
267.7640919441232
 20
90.28929485670301
 30
0.0
 11
239.9569664166642
 21
90.28929485670301
 31
0.0
  0
INSERT
  5
39B
330
70
100
AcDbEntity
  8
sunpo
100
AcDbBlockReference
  2
Block_47
 10
0.0
 20
0.0
 30
0.0
  0
MTEXT
  5
3A2
330
70
100
AcDbEntity
  8
sunpo
100
AcDbMText
 10
97.35436119188863
 20
102.0333283911041
 30
0.0
 40
0.2
 41
0.0
 46
0.0
 71
     7
 72
     1
  1
\C8;\c8421504;\FKozGoPr6N-Regular|b0|i0|c128;\H1.766858;\W1.000000;(350)
 73
     1
 44
1.0
  0
MTEXT
  5
3A3
330
70
100
AcDbEntity
  8
sunpo
100
AcDbMText
 10
140.2893589092907
 20
102.0333283911041
 30
0.0
 40
0.2
 41
0.0
 46
0.0
 71
     7
 72
     1
  1
\C8;\c8421504;\FKozGoPr6N-Regular|b0|i0|c128;\H1.766858;\W1.000000;(350)
 73
     1
 44
1.0
  0
CIRCLE
  5
3A4
330
70
100
AcDbEntity
  8
0
 62
     8
420
  8421504
370
    25
100
AcDbCircle
 10
219.4942346183371
 20
90.28929485670301
 30
0.0
 40
0.1766858398360502
  0
LINE
  5
3A5
330
70
100
AcDbEntity
  8
0
 62
     8
420
  8421504
370
     0
100
AcDbLine
 10
219.4942346183371
 20
90.6426665363751
 30
0.0
 11
219.4942346183371
 21
90.99603821604722
 31
0.0
  0
ENDSEC
  0
SECTION
  2
OBJECTS
  0
DICTIONARY
  5
C
330
0
100
AcDbDictionary
281
     1
  3
ACAD_COLOR
350
63
  3
ACAD_DETAILVIEWSTYLE
350
6A
  3
ACAD_GROUP
350
D
  3
ACAD_LAYOUT
350
62
  3
ACAD_MATERIAL
350
10
  3
ACAD_MLEADERSTYLE
350
66
  3
ACAD_MLINESTYLE
350
5F
  3
ACAD_PLOTSETTINGS
350
61
  3
ACAD_PLOTSTYLENAME
350
E
  3
ACAD_SCALELIST
350
42
  3
ACAD_SECTIONVIEWSTYLE
350
68
  3
ACAD_TABLESTYLE
350
64
  3
ACAD_VISUALSTYLE
350
29
  3
ACDB_RECOMPOSE_DATA
350
3AE
  3
AcDbVariableDictionary
350
3A6
  0
DICTIONARY
  5
63
102
{ACAD_REACTORS
330
C
102
}
330
C
100
AcDbDictionary
281
     1
  0
DICTIONARY
  5
6A
102
{ACAD_REACTORS
330
C
102
}
330
C
100
AcDbDictionary
281
     1
  3
Imperial24
350
6B
  0
DICTIONARY
  5
D
102
{ACAD_REACTORS
330
C
102
}
330
C
100
AcDbDictionary
281
     1
  0
DICTIONARY
  5
62
102
{ACAD_REACTORS
330
C
102
}
330
C
100
AcDbDictionary
281
     1
  3
Layout1
350
6F
  3
Layout2
350
77
  3
Model
350
73
  0
DICTIONARY
  5
10
102
{ACAD_REACTORS
330
C
102
}
330
C
100
AcDbDictionary
281
     1
  3
ByBlock
350
19
  3
ByLayer
350
11
  3
Global
350
21
  0
DICTIONARY
  5
66
102
{ACAD_REACTORS
330
C
102
}
330
C
100
AcDbDictionary
281
     1
  3
Standard
350
67
  0
DICTIONARY
  5
5F
102
{ACAD_REACTORS
330
C
102
}
330
C
100
AcDbDictionary
281
     1
  3
Standard
350
60
  0
DICTIONARY
  5
61
102
{ACAD_REACTORS
330
C
102
}
330
C
100
AcDbDictionary
281
     1
  0
ACDBDICTIONARYWDFLT
  5
E
102
{ACAD_REACTORS
330
C
102
}
330
C
100
AcDbDictionary
281
     1
  3
Normal
350
F
100
AcDbDictionaryWithDefault
340
F
  0
DICTIONARY
  5
42
102
{ACAD_REACTORS
330
C
102
}
330
C
100
AcDbDictionary
281
     1
  3
A0
350
43
  3
A1
350
44
  3
A2
350
45
  3
A3
350
46
  3
A4
350
47
  3
A5
350
48
  3
A6
350
49
  3
A7
350
4A
  3
A8
350
4B
  3
A9
350
4C
  3
B0
350
4D
  3
B1
350
4E
  3
B2
350
4F
  3
B3
350
50
  3
B4
350
51
  3
B5
350
52
  3
B6
350
53
  0
DICTIONARY
  5
68
102
{ACAD_REACTORS
330
C
102
}
330
C
100
AcDbDictionary
281
     1
  3
Imperial24
350
69
  0
DICTIONARY
  5
64
102
{ACAD_REACTORS
330
C
102
}
330
C
100
AcDbDictionary
281
     1
  3
Standard
350
65
  0
DICTIONARY
  5
29
102
{ACAD_REACTORS
330
C
102
}
330
C
100
AcDbDictionary
281
     1
  3
2dWireframe
350
2F
  3
Basic
350
2E
  3
Brighten
350
35
  3
ColorChange
350
39
  3
Conceptual
350
32
  3
Dim
350
34
  3
EdgeColorOff
350
41
  3
Facepattern
350
38
  3
Flat
350
2A
  3
FlatWithEdges
350
2B
  3
Gouraud
350
2C
  3
GouraudWithEdges
350
2D
  3
Hidden
350
31
  3
JitterOff
350
3F
  3
Linepattern
350
37
  3
OverhangOff
350
40
  3
Realistic
350
33
  3
Shaded
350
3E
  3
Shaded with edges
350
3D
  3
Shades of Gray
350
3A
  3
Sketchy
350
3B
  3
Thicken
350
36
  3
Wireframe
350
30
  3
X-Ray
350
3C
  0
XRECORD
  5
3AE
102
{ACAD_REACTORS
330
C
102
}
330
C
100
AcDbXrecord
280
     1
 90
        1
330
65
  0
DICTIONARY
  5
3A6
102
{ACAD_REACTORS
330
C
102
}
330
C
100
AcDbDictionary
281
     1
  3
CANNOSCALE
350
3AB
  3
CMLEADERSTYLE
350
3A8
  3
CTABLESTYLE
350
3A7
  3
CVIEWDETAILSTYLE
350
3A9
  3
CVIEWSECTIONSTYLE
350
3AA
  0
ACDBDETAILVIEWSTYLE
  5
6B
102
{ACAD_REACTORS
330
6A
102
}
330
6A
100
AcDbModelDocViewStyle
 70
     0
  3
Imperial24
290
     1
300
Imperial24
 90
        0
100
AcDbDetailViewStyle
 70
     0
 71
     0
 90
        3
 71
     1
340
55
 62
   256
 40
0.24
340
0
 62
   256
 40
0.24
300

 40
0.36
280
     3
 71
     2
340
5D
 90
       25
 62
   256
 71
     3
340
55
 62
   256
 40
0.24
 90
        1
 40
0.75
 90
        1
300
%<\AcVar ViewType \f "%tc1">% %<\AcVar ViewDetailId>%\PSCALE %<\AcVar ViewScale \f "%sn">%
 71
     4
340
5D
 90
       25
 62
   256
340
5D
 90
       25
 62
   256
280
     0
  0
LAYOUT
  5
6F
102
{ACAD_REACTORS
330
62
102
}
330
62
100
AcDbPlotSettings
  1

  2

  4

  6

 40
0.0
 41
0.0
 42
0.0
 43
0.0
 44
0.0
 45
0.0
 46
0.0
 47
0.0
 48
0.0
 49
0.0
140
0.0
141
0.0
142
1.0
143
1.0
 70
   688
 72
     0
 73
     0
 74
     5
  7

 75
    16
147
1.0
 76
     0
 77
     2
 78
   300
148
0.0
149
0.0
100
AcDbLayout
  1
Layout1
 70
     1
 71
     1
 10
0.0
 20
0.0
 11
12.0
 21
9.0
 12
0.0
 22
0.0
 32
0.0
 14
0.0
 24
0.0
 34
0.0
 15
0.0
 25
0.0
 35
0.0
146
0.0
 13
0.0
 23
0.0
 33
0.0
 16
1.0
 26
0.0
 36
0.0
 17
0.0
 27
1.0
 37
0.0
 76
     0
330
6C
  0
LAYOUT
  5
77
102
{ACAD_REACTORS
330
62
102
}
330
62
100
AcDbPlotSettings
  1

  2

  4

  6

 40
0.0
 41
0.0
 42
0.0
 43
0.0
 44
0.0
 45
0.0
 46
0.0
 47
0.0
 48
0.0
 49
0.0
140
0.0
141
0.0
142
1.0
143
1.0
 70
   688
 72
     0
 73
     0
 74
     5
  7

 75
    16
147
1.0
 76
     0
 77
     2
 78
   300
148
0.0
149
0.0
100
AcDbLayout
  1
Layout2
 70
     1
 71
     2
 10
0.0
 20
0.0
 11
12.0
 21
9.0
 12
0.0
 22
0.0
 32
0.0
 14
0.0
 24
0.0
 34
0.0
 15
0.0
 25
0.0
 35
0.0
146
0.0
 13
0.0
 23
0.0
 33
0.0
 16
1.0
 26
0.0
 36
0.0
 17
0.0
 27
1.0
 37
0.0
 76
     0
330
74
  0
LAYOUT
  5
73
102
{ACAD_REACTORS
330
62
102
}
330
62
100
AcDbPlotSettings
  1

  2

  4

  6

 40
0.0
 41
0.0
 42
0.0
 43
0.0
 44
0.0
 45
0.0
 46
0.0
 47
0.0
 48
0.0
 49
0.0
140
0.0
141
0.0
142
1.0
143
1.0
 70
  1712
 72
     0
 73
     0
 74
     0
  7

 75
     0
147
1.0
 76
     0
 77
     2
 78
   300
148
0.0
149
0.0
100
AcDbLayout
  1
Model
 70
     1
 71
     0
 10
0.0
 20
0.0
 11
12.0
 21
9.0
 12
0.0
 22
0.0
 32
0.0
 14
0.0
 24
0.0
 34
0.0
 15
0.0
 25
0.0
 35
0.0
146
0.0
 13
0.0
 23
0.0
 33
0.0
 16
1.0
 26
0.0
 36
0.0
 17
0.0
 27
1.0
 37
0.0
 76
     0
330
70
  0
MATERIAL
  5
19
102
{ACAD_XDICTIONARY
360
1A
102
}
102
{ACAD_REACTORS
330
10
102
}
330
10
100
AcDbMaterial
  1
ByBlock
 72
     0
 43
0.0208333333333333
 43
0.0
 43
0.0
 43
0.0
 43
0.0
 43
0.0208333333333333
 43
0.0
 43
0.0
 43
0.0
 43
0.0
 43
1.0
 43
0.0
 43
0.0
 43
0.0
 43
0.0
 43
1.0
 77
     0
 47
0.0208333333333333
 47
0.0
 47
0.0
 47
0.0
 47
0.0
 47
0.0208333333333333
 47
0.0
 47
0.0
 47
0.0
 47
0.0
 47
1.0
 47
0.0
 47
0.0
 47
0.0
 47
0.0
 47
1.0
171
     0
 49
0.0208333333333333
 49
0.0
 49
0.0
 49
0.0
 49
0.0
 49
0.0208333333333333
 49
0.0
 49
0.0
 49
0.0
 49
0.0
 49
1.0
 49
0.0
 49
0.0
 49
0.0
 49
0.0
 49
1.0
175
     0
142
0.0208333333333333
142
0.0
142
0.0
142
0.0
142
0.0
142
0.0208333333333333
142
0.0
142
0.0
142
0.0
142
0.0
142
1.0
142
0.0
142
0.0
142
0.0
142
0.0
142
1.0
179
     0
144
0.0208333333333333
144
0.0
144
0.0
144
0.0
144
0.0
144
0.0208333333333333
144
0.0
144
0.0
144
0.0
144
0.0
144
1.0
144
0.0
144
0.0
144
0.0
144
0.0
144
1.0
147
0.0208333333333333
147
0.0
147
0.0
147
0.0
147
0.0
147
0.0208333333333333
147
0.0
147
0.0
147
0.0
147
0.0
147
1.0
147
0.0
147
0.0
147
0.0
147
0.0
147
1.0
  0
MATERIAL
  5
11
102
{ACAD_XDICTIONARY
360
12
102
}
102
{ACAD_REACTORS
330
10
102
}
330
10
100
AcDbMaterial
  1
ByLayer
 72
     0
 43
0.0208333333333333
 43
0.0
 43
0.0
 43
0.0
 43
0.0
 43
0.0208333333333333
 43
0.0
 43
0.0
 43
0.0
 43
0.0
 43
1.0
 43
0.0
 43
0.0
 43
0.0
 43
0.0
 43
1.0
 77
     0
 47
0.0208333333333333
 47
0.0
 47
0.0
 47
0.0
 47
0.0
 47
0.0208333333333333
 47
0.0
 47
0.0
 47
0.0
 47
0.0
 47
1.0
 47
0.0
 47
0.0
 47
0.0
 47
0.0
 47
1.0
171
     0
 49
0.0208333333333333
 49
0.0
 49
0.0
 49
0.0
 49
0.0
 49
0.0208333333333333
 49
0.0
 49
0.0
 49
0.0
 49
0.0
 49
1.0
 49
0.0
 49
0.0
 49
0.0
 49
0.0
 49
1.0
175
     0
142
0.0208333333333333
142
0.0
142
0.0
142
0.0
142
0.0
142
0.0208333333333333
142
0.0
142
0.0
142
0.0
142
0.0
142
1.0
142
0.0
142
0.0
142
0.0
142
0.0
142
1.0
179
     0
144
0.0208333333333333
144
0.0
144
0.0
144
0.0
144
0.0
144
0.0208333333333333
144
0.0
144
0.0
144
0.0
144
0.0
144
1.0
144
0.0
144
0.0
144
0.0
144
0.0
144
1.0
147
0.0208333333333333
147
0.0
147
0.0
147
0.0
147
0.0
147
0.0208333333333333
147
0.0
147
0.0
147
0.0
147
0.0
147
1.0
147
0.0
147
0.0
147
0.0
147
0.0
147
1.0
  0
MATERIAL
  5
21
102
{ACAD_XDICTIONARY
360
22
102
}
102
{ACAD_REACTORS
330
10
102
}
330
10
100
AcDbMaterial
  1
Global
 72
     0
 43
0.0208333333333333
 43
0.0
 43
0.0
 43
0.0
 43
0.0
 43
0.0208333333333333
 43
0.0
 43
0.0
 43
0.0
 43
0.0
 43
1.0
 43
0.0
 43
0.0
 43
0.0
 43
0.0
 43
1.0
 77
     0
 47
0.0208333333333333
 47
0.0
 47
0.0
 47
0.0
 47
0.0
 47
0.0208333333333333
 47
0.0
 47
0.0
 47
0.0
 47
0.0
 47
1.0
 47
0.0
 47
0.0
 47
0.0
 47
0.0
 47
1.0
171
     0
 49
0.0208333333333333
 49
0.0
 49
0.0
 49
0.0
 49
0.0
 49
0.0208333333333333
 49
0.0
 49
0.0
 49
0.0
 49
0.0
 49
1.0
 49
0.0
 49
0.0
 49
0.0
 49
0.0
 49
1.0
175
     0
142
0.0208333333333333
142
0.0
142
0.0
142
0.0
142
0.0
142
0.0208333333333333
142
0.0
142
0.0
142
0.0
142
0.0
142
1.0
142
0.0
142
0.0
142
0.0
142
0.0
142
1.0
179
     0
144
0.0208333333333333
144
0.0
144
0.0
144
0.0
144
0.0
144
0.0208333333333333
144
0.0
144
0.0
144
0.0
144
0.0
144
1.0
144
0.0
144
0.0
144
0.0
144
0.0
144
1.0
147
0.0208333333333333
147
0.0
147
0.0
147
0.0
147
0.0
147
0.0208333333333333
147
0.0
147
0.0
147
0.0
147
0.0
147
1.0
147
0.0
147
0.0
147
0.0
147
0.0
147
1.0
  0
MLEADERSTYLE
  5
67
102
{ACAD_REACTORS
330
66
102
}
330
66
100
AcDbMLeaderStyle
179
     2
170
     2
171
     1
172
     0
 90
        2
 40
0.0
 41
0.0
173
     1
 91
-1056964608
340
5B
 92
       -2
290
     1
 42
0.09
291
     1
 43
0.36
  3
Standard
 44
0.18
300

342
55
174
     1
178
     6
175
     1
176
     0
 93
-1056964608
 45
0.18
292
     0
297
     0
 46
0.18
 94
-1056964608
 47
1.0
 49
1.0
140
1.0
293
     1
141
0.0
294
     1
177
     0
142
1.0
295
     1
296
     0
143
0.125
271
     0
272
     9
273
     9
298
     1
  0
MLINESTYLE
  5
60
102
{ACAD_REACTORS
330
5F
102
}
330
5F
100
AcDbMlineStyle
  2
STANDARD
 70
     0
  3

 62
   256
 51
90.0
 52
90.0
 71
     2
 49
0.5
 62
   256
  6
BYLAYER
 49
-0.5
 62
   256
  6
BYLAYER
  0
ACDBPLACEHOLDER
  5
F
102
{ACAD_REACTORS
330
E
102
}
330
E
  0
SCALE
  5
43
102
{ACAD_REACTORS
330
42
102
}
330
42
100
AcDbScale
 70
     0
300
1:1
140
1.0
141
1.0
290
     1
  0
SCALE
  5
44
102
{ACAD_REACTORS
330
42
102
}
330
42
100
AcDbScale
 70
     0
300
1/128" = 1'-0"
140
0.0078125
141
12.0
290
     0
  0
SCALE
  5
45
102
{ACAD_REACTORS
330
42
102
}
330
42
100
AcDbScale
 70
     0
300
1/64" = 1'-0"
140
0.015625
141
12.0
290
     0
  0
SCALE
  5
46
102
{ACAD_REACTORS
330
42
102
}
330
42
100
AcDbScale
 70
     0
300
1/32" = 1'-0"
140
0.03125
141
12.0
290
     0
  0
SCALE
  5
47
102
{ACAD_REACTORS
330
42
102
}
330
42
100
AcDbScale
 70
     0
300
1/16" = 1'-0"
140
0.0625
141
12.0
290
     0
  0
SCALE
  5
48
102
{ACAD_REACTORS
330
42
102
}
330
42
100
AcDbScale
 70
     0
300
3/32" = 1'-0"
140
0.09375
141
12.0
290
     0
  0
SCALE
  5
49
102
{ACAD_REACTORS
330
42
102
}
330
42
100
AcDbScale
 70
     0
300
1/8" = 1'-0"
140
0.125
141
12.0
290
     0
  0
SCALE
  5
4A
102
{ACAD_REACTORS
330
42
102
}
330
42
100
AcDbScale
 70
     0
300
3/16" = 1'-0"
140
0.1875
141
12.0
290
     0
  0
SCALE
  5
4B
102
{ACAD_REACTORS
330
42
102
}
330
42
100
AcDbScale
 70
     0
300
1/4" = 1'-0"
140
0.25
141
12.0
290
     0
  0
SCALE
  5
4C
102
{ACAD_REACTORS
330
42
102
}
330
42
100
AcDbScale
 70
     0
300
3/8" = 1'-0"
140
0.375
141
12.0
290
     0
  0
SCALE
  5
4D
102
{ACAD_REACTORS
330
42
102
}
330
42
100
AcDbScale
 70
     0
300
1/2" = 1'-0"
140
0.5
141
12.0
290
     0
  0
SCALE
  5
4E
102
{ACAD_REACTORS
330
42
102
}
330
42
100
AcDbScale
 70
     0
300
3/4" = 1'-0"
140
0.75
141
12.0
290
     0
  0
SCALE
  5
4F
102
{ACAD_REACTORS
330
42
102
}
330
42
100
AcDbScale
 70
     0
300
1" = 1'-0"
140
1.0
141
12.0
290
     0
  0
SCALE
  5
50
102
{ACAD_REACTORS
330
42
102
}
330
42
100
AcDbScale
 70
     0
300
1-1/2" = 1'-0"
140
1.5
141
12.0
290
     0
  0
SCALE
  5
51
102
{ACAD_REACTORS
330
42
102
}
330
42
100
AcDbScale
 70
     0
300
3" = 1'-0"
140
3.0
141
12.0
290
     0
  0
SCALE
  5
52
102
{ACAD_REACTORS
330
42
102
}
330
42
100
AcDbScale
 70
     0
300
6" = 1'-0"
140
6.0
141
12.0
290
     0
  0
SCALE
  5
53
102
{ACAD_REACTORS
330
42
102
}
330
42
100
AcDbScale
 70
     0
300
1'-0" = 1'-0"
140
12.0
141
12.0
290
     0
  0
ACDBSECTIONVIEWSTYLE
  5
69
102
{ACAD_REACTORS
330
68
102
}
330
68
100
AcDbModelDocViewStyle
 70
     0
  3
Imperial24
290
     1
300
Imperial24
 90
        0
100
AcDbSectionViewStyle
 70
     0
 71
     0
 90
       78
 71
     1
340
55
 62
   256
 40
0.24
340
0
340
0
 62
   256
 40
0.24
300
I, O, Q, S, X, Z
 40
0.48
 90
        3
 40
0.18
 90
        1
 71
     2
340
5D
 90
       25
 62
   256
340
5D
 90
       50
 62
   256
 40
0.24
 40
0.0
 40
0.24
 71
     3
340
55
 62
   256
 40
0.24
 90
        1
 40
0.75
 90
        1
300
%<\AcVar ViewType \f "%tc1">% %<\AcVar ViewSectionStartId>%-%<\AcVar ViewSectionEndId>%\PSCALE %<\AcVar ViewScale \f "%sn">%
 71
     4
 62
   256
 62
   257
300
ANSI31
 40
1.0
 90
        0
290
     0
290
     0
 90
        6
 40
0.0
 40
1.570796326794896
 40
0.2617993877991494
 40
1.308996938995747
 40
-0.2617993877991494
 40
1.832595714594046
  0
TABLESTYLE
  5
65
102
{ACAD_XDICTIONARY
360
3AC
102
}
102
{ACAD_REACTORS
330
64
102
}
330
64
100
AcDbTableStyle
280
     0
  3
Standard
 70
     0
 71
     0
 40
0.06
 41
0.06
280
     0
281
     0
  7
Standard
140
0.18
170
     2
 62
     0
 63
     7
283
     0
 90
      512
 91
        0
  1

274
    -2
284
     1
 64
     0
275
    -2
285
     1
 65
     0
276
    -2
286
     1
 66
     0
277
    -2
287
     1
 67
     0
278
    -2
288
     1
 68
     0
279
    -2
289
     1
 69
     0
  7
Standard
140
0.25
170
     5
 62
     0
 63
     7
283
     0
 90
      512
 91
        0
  1

274
    -2
284
     1
 64
     0
275
    -2
285
     1
 65
     0
276
    -2
286
     1
 66
     0
277
    -2
287
     1
 67
     0
278
    -2
288
     1
 68
     0
279
    -2
289
     1
 69
     0
  7
Standard
140
0.18
170
     5
 62
     0
 63
     7
283
     0
 90
      512
 91
        0
  1

274
    -2
284
     1
 64
     0
275
    -2
285
     1
 65
     0
276
    -2
286
     1
 66
     0
277
    -2
287
     1
 67
     0
278
    -2
288
     1
 68
     0
279
    -2
289
     1
 69
     0
  0
VISUALSTYLE
  5
2F
102
{ACAD_REACTORS
330
29
102
}
330
29
100
AcDbVisualStyle
  2
2dWireframe
 70
     4
177
     3
291
     0
 70
    58
 90
        0
176
     1
 90
        2
176
     1
 90
        0
176
     1
 90
        0
176
     1
 40
0.6
176
     1
 40
30.0
176
     1
 62
     7
420
 16777215
176
     1
 90
        1
176
     1
 90
        4
176
     1
 62
     7
176
     1
 62
   257
176
     1
 90
        1
176
     1
 90
        1
176
     1
 40
1.0
176
     1
 90
        0
176
     1
 62
   257
176
     1
 40
1.0
176
     1
 90
        1
176
     1
 90
        6
176
     1
 90
        2
176
     1
 62
     7
176
     1
 90
        5
176
     1
 90
        0
176
     1
 90
        0
176
     1
290
     0
176
     1
 90
        1
176
     1
 40
0.0
176
     1
 90
        0
176
     1
290
     1
176
     1
290
     1
176
     1
290
     0
176
     1
290
     0
176
     1
290
     0
176
     1
290
     0
176
     1
290
     0
176
     1
290
     0
176
     1
290
     0
176
     1
 90
       50
176
     1
 40
0.0
176
     1
 40
1.0
176
     1
 90
        0
176
     1
 62
    18
420
        0
176
     1
 90
       50
176
     1
 90
        3
176
     1
 62
     5
420
      255
176
     1
290
     0
176
     1
 90
       50
176
     1
 90
       50
176
     1
 90
       50
176
     1
290
     0
176
     1
 90
       50
176
     1
 62
   256
176
     0
 40
1.0
176
     0
 90
        2
176
     1
  1
strokes_ogs.tif
176
     1
290
     0
176
     1
 40
1.0
176
     1
 40
1.0
176
     1
  0
VISUALSTYLE
  5
2E
102
{ACAD_REACTORS
330
29
102
}
330
29
100
AcDbVisualStyle
  2
Basic
 70
     7
177
     3
291
     1
 70
    58
 90
        1
176
     1
 90
        0
176
     1
 90
        1
176
     1
 90
        0
176
     1
 40
0.6
176
     1
 40
30.0
176
     1
 62
     7
420
 16777215
176
     1
 90
        0
176
     1
 90
        4
176
     1
 62
     7
176
     1
 62
   257
176
     1
 90
        1
176
     1
 90
        1
176
     1
 40
1.0
176
     1
 90
        8
176
     1
 62
     7
176
     1
 40
1.0
176
     1
 90
        1
176
     1
 90
        6
176
     1
 90
        2
176
     1
 62
     7
176
     1
 90
        5
176
     1
 90
        0
176
     1
 90
        0
176
     1
290
     0
176
     1
 90
        1
176
     1
 40
0.0
176
     1
 90
        0
176
     1
290
     0
176
     1
290
     1
176
     1
290
     1
176
     1
290
     0
176
     1
290
     0
176
     1
290
     0
176
     1
290
     0
176
     1
290
     0
176
     1
290
     0
176
     1
 90
       50
176
     1
 40
0.0
176
     1
 40
1.0
176
     1
 90
        0
176
     1
 62
    18
420
        0
176
     1
 90
       50
176
     1
 90
        3
176
     1
 62
     5
420
      255
176
     1
290
     0
176
     1
 90
       50
176
     1
 90
       50
176
     1
 90
       50
176
     1
290
     0
176
     1
 90
       50
176
     1
 62
   256
176
     0
 40
1.0
176
     0
 90
        2
176
     1
  1
strokes_ogs.tif
176
     1
290
     0
176
     1
 40
1.0
176
     1
 40
1.0
176
     1
  0
VISUALSTYLE
  5
35
102
{ACAD_REACTORS
330
29
102
}
330
29
100
AcDbVisualStyle
  2
Brighten
 70
    12
177
     3
291
     1
 70
    58
 90
        2
176
     1
 90
        2
176
     1
 90
        0
176
     1
 90
        0
176
     1
 40
0.6
176
     1
 40
30.0
176
     1
 62
     7
420
 16777215
176
     1
 90
        1
176
     1
 90
        4
176
     1
 62
     7
176
     1
 62
   257
176
     1
 90
        1
176
     1
 90
        1
176
     1
 40
1.0
176
     1
 90
        8
176
     1
 62
     7
176
     1
 40
1.0
176
     1
 90
        1
176
     1
 90
        6
176
     1
 90
        2
176
     1
 62
     7
176
     1
 90
        5
176
     1
 90
        0
176
     1
 90
        0
176
     1
290
     0
176
     1
 90
        1
176
     1
 40
50.0
176
     1
 90
        0
176
     1
290
     0
176
     1
290
     1
176
     1
290
     1
176
     1
290
     0
176
     1
290
     0
176
     1
290
     0
176
     1
290
     0
176
     1
290
     0
176
     1
290
     0
176
     1
 90
       50
176
     1
 40
0.0
176
     1
 40
1.0
176
     1
 90
        0
176
     1
 62
    18
420
        0
176
     1
 90
       50
176
     1
 90
        3
176
     1
 62
     5
420
      255
176
     1
290
     0
176
     1
 90
       50
176
     1
 90
       50
176
     1
 90
       50
176
     1
290
     0
176
     1
 90
       50
176
     1
 62
   256
176
     0
 40
1.0
176
     0
 90
        2
176
     1
  1
strokes_ogs.tif
176
     1
290
     0
176
     1
 40
1.0
176
     1
 40
1.0
176
     1
  0
VISUALSTYLE
  5
39
102
{ACAD_REACTORS
330
29
102
}
330
29
100
AcDbVisualStyle
  2
ColorChange
 70
    16
177
     3
291
     1
 70
    58
 90
        2
176
     1
 90
        2
176
     1
 90
        3
176
     1
 90
        0
176
     1
 40
0.6
176
     1
 40
30.0
176
     1
 62
     8
420
  8421504
176
     1
 90
        1
176
     1
 90
        4
176
     1
 62
     7
176
     1
 62
   257
176
     1
 90
        1
176
     1
 90
        1
176
     1
 40
1.0
176
     1
 90
        8
176
     1
 62
     8
420
  8421504
176
     1
 40
1.0
176
     1
 90
        1
176
     1
 90
        6
176
     1
 90
        2
176
     1
 62
     7
176
     1
 90
        5
176
     1
 90
        0
176
     1
 90
        0
176
     1
290
     0
176
     1
 90
        1
176
     1
 40
0.0
176
     1
 90
        0
176
     1
290
     0
176
     1
290
     1
176
     1
290
     1
176
     1
290
     0
176
     1
290
     0
176
     1
290
     0
176
     1
290
     0
176
     1
290
     0
176
     1
290
     0
176
     1
 90
       50
176
     1
 40
0.0
176
     1
 40
1.0
176
     1
 90
        0
176
     1
 62
    18
420
        0
176
     1
 90
       50
176
     1
 90
        3
176
     1
 62
     5
420
      255
176
     1
290
     0
176
     1
 90
       50
176
     1
 90
       50
176
     1
 90
       50
176
     1
290
     0
176
     1
 90
       50
176
     1
 62
   256
176
     0
 40
1.0
176
     0
 90
        2
176
     1
  1
strokes_ogs.tif
176
     1
290
     0
176
     1
 40
1.0
176
     1
 40
1.0
176
     1
  0
VISUALSTYLE
  5
32
102
{ACAD_REACTORS
330
29
102
}
330
29
100
AcDbVisualStyle
  2
Conceptual
 70
     9
177
     3
291
     0
 70
    58
 90
        3
176
     1
 90
        2
176
     1
 90
        0
176
     1
 90
        0
176
     1
 40
0.6
176
     1
 40
30.0
176
     1
 62
     7
420
 16777215
176
     1
 90
        2
176
     1
 90
        2
176
     1
 62
     7
176
     1
 62
   257
176
     1
 90
        1
176
     1
 90
        1
176
     1
 40
179.0
176
     1
 90
        8
176
     1
 62
     7
176
     1
 40
1.0
176
     1
 90
        1
176
     1
 90
        6
176
     1
 90
        2
176
     1
 62
     7
176
     1
 90
        3
176
     1
 90
        0
176
     1
 90
        0
176
     1
290
     0
176
     1
 90
        1
176
     1
 40
0.0
176
     1
 90
        0
176
     1
290
     0
176
     1
290
     1
176
     1
290
     1
176
     1
290
     0
176
     1
290
     0
176
     1
290
     0
176
     1
290
     0
176
     1
290
     0
176
     1
290
     0
176
     1
 90
       50
176
     1
 40
0.0
176
     1
 40
1.0
176
     1
 90
        0
176
     1
 62
    18
420
        0
176
     1
 90
       50
176
     1
 90
        3
176
     1
 62
     5
420
      255
176
     1
290
     0
176
     1
 90
       50
176
     1
 90
       50
176
     1
 90
       50
176
     1
290
     0
176
     1
 90
       50
176
     1
 62
   256
176
     0
 40
1.0
176
     0
 90
        2
176
     1
  1
strokes_ogs.tif
176
     1
290
     0
176
     1
 40
1.0
176
     1
 40
1.0
176
     1
  0
VISUALSTYLE
  5
34
102
{ACAD_REACTORS
330
29
102
}
330
29
100
AcDbVisualStyle
  2
Dim
 70
    11
177
     3
291
     1
 70
    58
 90
        2
176
     1
 90
        2
176
     1
 90
        0
176
     1
 90
        0
176
     1
 40
0.6
176
     1
 40
30.0
176
     1
 62
     7
420
 16777215
176
     1
 90
        1
176
     1
 90
        4
176
     1
 62
     7
176
     1
 62
   257
176
     1
 90
        1
176
     1
 90
        1
176
     1
 40
1.0
176
     1
 90
        8
176
     1
 62
     7
176
     1
 40
1.0
176
     1
 90
        1
176
     1
 90
        6
176
     1
 90
        2
176
     1
 62
     7
176
     1
 90
        5
176
     1
 90
        0
176
     1
 90
        0
176
     1
290
     0
176
     1
 90
        1
176
     1
 40
-50.0
176
     1
 90
        0
176
     1
290
     0
176
     1
290
     1
176
     1
290
     1
176
     1
290
     0
176
     1
290
     0
176
     1
290
     0
176
     1
290
     0
176
     1
290
     0
176
     1
290
     0
176
     1
 90
       50
176
     1
 40
0.0
176
     1
 40
1.0
176
     1
 90
        0
176
     1
 62
    18
420
        0
176
     1
 90
       50
176
     1
 90
        3
176
     1
 62
     5
420
      255
176
     1
290
     0
176
     1
 90
       50
176
     1
 90
       50
176
     1
 90
       50
176
     1
290
     0
176
     1
 90
       50
176
     1
 62
   256
176
     0
 40
1.0
176
     0
 90
        2
176
     1
  1
strokes_ogs.tif
176
     1
290
     0
176
     1
 40
1.0
176
     1
 40
1.0
176
     1
  0
VISUALSTYLE
  5
41
102
{ACAD_REACTORS
330
29
102
}
330
29
100
AcDbVisualStyle
  2
EdgeColorOff
 70
    22
177
     3
291
     1
 70
    58
 90
        2
176
     0
 90
        2
176
     0
 90
        0
176
     0
 90
        0
176
     0
 40
0.6
176
     0
 40
30.0
176
     0
 62
     7
420
 16777215
176
     0
 90
        1
176
     0
 90
        4
176
     0
 62
     7
176
     0
 62
   257
176
     0
 90
        1
176
     0
 90
        1
176
     0
 40
1.0
176
     0
 90
        8
176
     2
 62
     7
176
     0
 40
1.0
176
     0
 90
        1
176
     0
 90
        6
176
     0
 90
        2
176
     0
 62
     7
176
     0
 90
        5
176
     0
 90
        0
176
     0
 90
        0
176
     0
290
     0
176
     0
 90
        1
176
     0
 40
0.0
176
     0
 90
        0
176
     0
290
     0
176
     0
290
     1
176
     0
290
     1
176
     0
290
     0
176
     0
290
     0
176
     0
290
     0
176
     0
290
     0
176
     0
290
     0
176
     0
290
     0
176
     0
 90
       50
176
     0
 40
0.0
176
     0
 40
1.0
176
     0
 90
        0
176
     0
 62
    18
420
        0
176
     0
 90
       50
176
     0
 90
        3
176
     0
 62
     5
420
      255
176
     0
290
     0
176
     0
 90
       50
176
     0
 90
       50
176
     0
 90
       50
176
     0
290
     0
176
     0
 90
       50
176
     0
 62
   256
176
     0
 40
1.0
176
     0
 90
        2
176
     0
  1
strokes_ogs.tif
176
     0
290
     0
176
     0
 40
1.0
176
     0
 40
1.0
176
     0
  0
VISUALSTYLE
  5
38
102
{ACAD_REACTORS
330
29
102
}
330
29
100
AcDbVisualStyle
  2
Facepattern
 70
    15
177
     3
291
     1
 70
    58
 90
        2
176
     1
 90
        2
176
     1
 90
        0
176
     1
 90
        0
176
     1
 40
0.6
176
     1
 40
30.0
176
     1
 62
     7
420
 16777215
176
     1
 90
        1
176
     1
 90
        4
176
     1
 62
     7
176
     1
 62
   257
176
     1
 90
        1
176
     1
 90
        1
176
     1
 40
1.0
176
     1
 90
        8
176
     1
 62
     7
176
     1
 40
1.0
176
     1
 90
        1
176
     1
 90
        6
176
     1
 90
        2
176
     1
 62
     7
176
     1
 90
        5
176
     1
 90
        0
176
     1
 90
        0
176
     1
290
     0
176
     1
 90
        1
176
     1
 40
0.0
176
     1
 90
        0
176
     1
290
     0
176
     1
290
     1
176
     1
290
     1
176
     1
290
     0
176
     1
290
     0
176
     1
290
     0
176
     1
290
     0
176
     1
290
     0
176
     1
290
     0
176
     1
 90
       50
176
     1
 40
0.0
176
     1
 40
1.0
176
     1
 90
        0
176
     1
 62
    18
420
        0
176
     1
 90
       50
176
     1
 90
        3
176
     1
 62
     5
420
      255
176
     1
290
     0
176
     1
 90
       50
176
     1
 90
       50
176
     1
 90
       50
176
     1
290
     0
176
     1
 90
       50
176
     1
 62
   256
176
     0
 40
1.0
176
     0
 90
        2
176
     1
  1
strokes_ogs.tif
176
     1
290
     0
176
     1
 40
1.0
176
     1
 40
1.0
176
     1
  0
VISUALSTYLE
  5
2A
102
{ACAD_REACTORS
330
29
102
}
330
29
100
AcDbVisualStyle
  2
Flat
 70
     0
177
     3
291
     1
 70
    58
 90
        2
176
     1
 90
        1
176
     1
 90
        1
176
     1
 90
        2
176
     1
 40
0.6
176
     1
 40
30.0
176
     1
 62
     7
420
 16777215
176
     1
 90
        0
176
     1
 90
        0
176
     1
 62
     7
176
     1
 62
   257
176
     1
 90
        1
176
     1
 90
        1
176
     1
 40
1.0
176
     1
 90
        8
176
     1
 62
     7
176
     1
 40
1.0
176
     1
 90
        1
176
     1
 90
        6
176
     1
 90
        2
176
     1
 62
     7
176
     1
 90
        5
176
     1
 90
        0
176
     1
 90
        0
176
     1
290
     0
176
     1
 90
       13
176
     1
 40
0.0
176
     1
 90
        0
176
     1
290
     0
176
     1
290
     1
176
     1
290
     1
176
     1
290
     0
176
     1
290
     0
176
     1
290
     0
176
     1
290
     0
176
     1
290
     0
176
     1
290
     0
176
     1
 90
       50
176
     1
 40
0.0
176
     1
 40
1.0
176
     1
 90
        0
176
     1
 62
    18
420
        0
176
     1
 90
       50
176
     1
 90
        3
176
     1
 62
     5
420
      255
176
     1
290
     0
176
     1
 90
       50
176
     1
 90
       50
176
     1
 90
       50
176
     1
290
     0
176
     1
 90
       50
176
     1
 62
   256
176
     0
 40
1.0
176
     0
 90
        2
176
     1
  1
strokes_ogs.tif
176
     1
290
     0
176
     1
 40
1.0
176
     1
 40
1.0
176
     1
  0
VISUALSTYLE
  5
2B
102
{ACAD_REACTORS
330
29
102
}
330
29
100
AcDbVisualStyle
  2
FlatWithEdges
 70
     1
177
     3
291
     1
 70
    58
 90
        2
176
     1
 90
        1
176
     1
 90
        1
176
     1
 90
        2
176
     1
 40
0.6
176
     1
 40
30.0
176
     1
 62
     7
420
 16777215
176
     1
 90
        1
176
     1
 90
        0
176
     1
 62
     7
176
     1
 62
   257
176
     1
 90
        1
176
     1
 90
        1
176
     1
 40
1.0
176
     1
 90
        0
176
     1
 62
   257
176
     1
 40
1.0
176
     1
 90
        1
176
     1
 90
        6
176
     1
 90
        2
176
     1
 62
     7
176
     1
 90
        5
176
     1
 90
        0
176
     1
 90
        0
176
     1
290
     0
176
     1
 90
       13
176
     1
 40
0.0
176
     1
 90
        0
176
     1
290
     0
176
     1
290
     1
176
     1
290
     1
176
     1
290
     0
176
     1
290
     0
176
     1
290
     0
176
     1
290
     0
176
     1
290
     0
176
     1
290
     0
176
     1
 90
       50
176
     1
 40
0.0
176
     1
 40
1.0
176
     1
 90
        0
176
     1
 62
    18
420
        0
176
     1
 90
       50
176
     1
 90
        3
176
     1
 62
     5
420
      255
176
     1
290
     0
176
     1
 90
       50
176
     1
 90
       50
176
     1
 90
       50
176
     1
290
     0
176
     1
 90
       50
176
     1
 62
   256
176
     0
 40
1.0
176
     0
 90
        2
176
     1
  1
strokes_ogs.tif
176
     1
290
     0
176
     1
 40
1.0
176
     1
 40
1.0
176
     1
  0
VISUALSTYLE
  5
2C
102
{ACAD_REACTORS
330
29
102
}
330
29
100
AcDbVisualStyle
  2
Gouraud
 70
     2
177
     3
291
     1
 70
    58
 90
        2
176
     1
 90
        2
176
     1
 90
        1
176
     1
 90
        2
176
     1
 40
0.6
176
     1
 40
30.0
176
     1
 62
     7
420
 16777215
176
     1
 90
        0
176
     1
 90
        0
176
     1
 62
     7
176
     1
 62
   257
176
     1
 90
        1
176
     1
 90
        1
176
     1
 40
1.0
176
     1
 90
        0
176
     1
 62
     7
176
     1
 40
1.0
176
     1
 90
        1
176
     1
 90
        6
176
     1
 90
        2
176
     1
 62
     7
176
     1
 90
        5
176
     1
 90
        0
176
     1
 90
        0
176
     1
290
     0
176
     1
 90
       13
176
     1
 40
0.0
176
     1
 90
        0
176
     1
290
     0
176
     1
290
     1
176
     1
290
     1
176
     1
290
     0
176
     1
290
     0
176
     1
290
     0
176
     1
290
     0
176
     1
290
     0
176
     1
290
     0
176
     1
 90
       50
176
     1
 40
0.0
176
     1
 40
1.0
176
     1
 90
        0
176
     1
 62
    18
420
        0
176
     1
 90
       50
176
     1
 90
        3
176
     1
 62
     5
420
      255
176
     1
290
     0
176
     1
 90
       50
176
     1
 90
       50
176
     1
 90
       50
176
     1
290
     0
176
     1
 90
       50
176
     1
 62
   256
176
     0
 40
1.0
176
     0
 90
        2
176
     1
  1
strokes_ogs.tif
176
     1
290
     0
176
     1
 40
1.0
176
     1
 40
1.0
176
     1
  0
VISUALSTYLE
  5
2D
102
{ACAD_REACTORS
330
29
102
}
330
29
100
AcDbVisualStyle
  2
GouraudWithEdges
 70
     3
177
     3
291
     1
 70
    58
 90
        2
176
     1
 90
        2
176
     1
 90
        1
176
     1
 90
        2
176
     1
 40
0.6
176
     1
 40
30.0
176
     1
 62
     7
420
 16777215
176
     1
 90
        1
176
     1
 90
        0
176
     1
 62
     7
176
     1
 62
   257
176
     1
 90
        1
176
     1
 90
        1
176
     1
 40
1.0
176
     1
 90
        0
176
     1
 62
   257
176
     1
 40
1.0
176
     1
 90
        1
176
     1
 90
        6
176
     1
 90
        2
176
     1
 62
     7
176
     1
 90
        5
176
     1
 90
        0
176
     1
 90
        0
176
     1
290
     0
176
     1
 90
       13
176
     1
 40
0.0
176
     1
 90
        0
176
     1
290
     0
176
     1
290
     1
176
     1
290
     1
176
     1
290
     0
176
     1
290
     0
176
     1
290
     0
176
     1
290
     0
176
     1
290
     0
176
     1
290
     0
176
     1
 90
       50
176
     1
 40
0.0
176
     1
 40
1.0
176
     1
 90
        0
176
     1
 62
    18
420
        0
176
     1
 90
       50
176
     1
 90
        3
176
     1
 62
     5
420
      255
176
     1
290
     0
176
     1
 90
       50
176
     1
 90
       50
176
     1
 90
       50
176
     1
290
     0
176
     1
 90
       50
176
     1
 62
   256
176
     0
 40
1.0
176
     0
 90
        2
176
     1
  1
strokes_ogs.tif
176
     1
290
     0
176
     1
 40
1.0
176
     1
 40
1.0
176
     1
  0
VISUALSTYLE
  5
31
102
{ACAD_REACTORS
330
29
102
}
330
29
100
AcDbVisualStyle
  2
Hidden
 70
     6
177
     3
291
     0
 70
    58
 90
        1
176
     1
 90
        2
176
     1
 90
        2
176
     1
 90
        0
176
     1
 40
0.6
176
     1
 40
30.0
176
     1
 62
     7
420
 16777215
176
     1
 90
        2
176
     1
 90
        2
176
     1
 62
     7
176
     1
 62
   257
176
     1
 90
        2
176
     1
 90
        1
176
     1
 40
40.0
176
     1
 90
        0
176
     1
 62
   257
176
     1
 40
1.0
176
     1
 90
        1
176
     1
 90
        6
176
     1
 90
        2
176
     1
 62
     7
176
     1
 90
        3
176
     1
 90
        0
176
     1
 90
        0
176
     1
290
     0
176
     1
 90
        1
176
     1
 40
0.0
176
     1
 90
        0
176
     1
290
     0
176
     1
290
     1
176
     1
290
     1
176
     1
290
     0
176
     1
290
     0
176
     1
290
     0
176
     1
290
     0
176
     1
290
     0
176
     1
290
     0
176
     1
 90
       50
176
     1
 40
0.0
176
     1
 40
1.0
176
     1
 90
        0
176
     1
 62
    18
420
        0
176
     1
 90
       50
176
     1
 90
        3
176
     1
 62
     5
420
      255
176
     1
290
     0
176
     1
 90
       50
176
     1
 90
       50
176
     1
 90
       50
176
     1
290
     0
176
     1
 90
       50
176
     1
 62
   256
176
     0
 40
1.0
176
     0
 90
        2
176
     1
  1
strokes_ogs.tif
176
     1
290
     0
176
     1
 40
1.0
176
     1
 40
1.0
176
     1
  0
VISUALSTYLE
  5
3F
102
{ACAD_REACTORS
330
29
102
}
330
29
100
AcDbVisualStyle
  2
JitterOff
 70
    20
177
     3
291
     1
 70
    58
 90
        2
176
     0
 90
        2
176
     0
 90
        0
176
     0
 90
        0
176
     0
 40
0.6
176
     0
 40
30.0
176
     0
 62
     7
420
 16777215
176
     0
 90
        1
176
     0
 90
        4
176
     0
 62
     7
176
     0
 62
   257
176
     0
 90
        1
176
     0
 90
        1
176
     0
 40
1.0
176
     0
 90
       10
176
     2
 62
     7
176
     0
 40
1.0
176
     0
 90
        1
176
     0
 90
        6
176
     0
 90
        2
176
     0
 62
     7
176
     0
 90
        5
176
     0
 90
        0
176
     0
 90
        0
176
     0
290
     0
176
     0
 90
        1
176
     0
 40
0.0
176
     0
 90
        0
176
     0
290
     0
176
     0
290
     1
176
     0
290
     1
176
     0
290
     0
176
     0
290
     0
176
     0
290
     0
176
     0
290
     0
176
     0
290
     0
176
     0
290
     0
176
     0
 90
       50
176
     0
 40
0.0
176
     0
 40
1.0
176
     0
 90
        0
176
     0
 62
    18
420
        0
176
     0
 90
       50
176
     0
 90
        3
176
     0
 62
     5
420
      255
176
     0
290
     0
176
     0
 90
       50
176
     0
 90
       50
176
     0
 90
       50
176
     0
290
     0
176
     0
 90
       50
176
     0
 62
   256
176
     0
 40
1.0
176
     0
 90
        2
176
     0
  1
strokes_ogs.tif
176
     0
290
     0
176
     0
 40
1.0
176
     0
 40
1.0
176
     0
  0
VISUALSTYLE
  5
37
102
{ACAD_REACTORS
330
29
102
}
330
29
100
AcDbVisualStyle
  2
Linepattern
 70
    14
177
     3
291
     1
 70
    58
 90
        2
176
     1
 90
        2
176
     1
 90
        0
176
     1
 90
        0
176
     1
 40
0.6
176
     1
 40
30.0
176
     1
 62
     7
420
 16777215
176
     1
 90
        1
176
     1
 90
        4
176
     1
 62
     7
176
     1
 62
   257
176
     1
 90
        7
176
     1
 90
        7
176
     1
 40
1.0
176
     1
 90
        8
176
     1
 62
     7
176
     1
 40
1.0
176
     1
 90
        1
176
     1
 90
        6
176
     1
 90
        2
176
     1
 62
     7
176
     1
 90
        5
176
     1
 90
        0
176
     1
 90
        0
176
     1
290
     0
176
     1
 90
        1
176
     1
 40
0.0
176
     1
 90
        0
176
     1
290
     0
176
     1
290
     1
176
     1
290
     1
176
     1
290
     0
176
     1
290
     0
176
     1
290
     0
176
     1
290
     0
176
     1
290
     0
176
     1
290
     0
176
     1
 90
       50
176
     1
 40
0.0
176
     1
 40
1.0
176
     1
 90
        0
176
     1
 62
    18
420
        0
176
     1
 90
       50
176
     1
 90
        3
176
     1
 62
     5
420
      255
176
     1
290
     0
176
     1
 90
       50
176
     1
 90
       50
176
     1
 90
       50
176
     1
290
     0
176
     1
 90
       50
176
     1
 62
   256
176
     0
 40
1.0
176
     0
 90
        2
176
     1
  1
strokes_ogs.tif
176
     1
290
     0
176
     1
 40
1.0
176
     1
 40
1.0
176
     1
  0
VISUALSTYLE
  5
40
102
{ACAD_REACTORS
330
29
102
}
330
29
100
AcDbVisualStyle
  2
OverhangOff
 70
    21
177
     3
291
     1
 70
    58
 90
        2
176
     0
 90
        2
176
     0
 90
        0
176
     0
 90
        0
176
     0
 40
0.6
176
     0
 40
30.0
176
     0
 62
     7
420
 16777215
176
     0
 90
        1
176
     0
 90
        4
176
     0
 62
     7
176
     0
 62
   257
176
     0
 90
        1
176
     0
 90
        1
176
     0
 40
1.0
176
     0
 90
        9
176
     2
 62
     7
176
     0
 40
1.0
176
     0
 90
        1
176
     0
 90
        6
176
     0
 90
        2
176
     0
 62
     7
176
     0
 90
        5
176
     0
 90
        0
176
     0
 90
        0
176
     0
290
     0
176
     0
 90
        1
176
     0
 40
0.0
176
     0
 90
        0
176
     0
290
     0
176
     0
290
     1
176
     0
290
     1
176
     0
290
     0
176
     0
290
     0
176
     0
290
     0
176
     0
290
     0
176
     0
290
     0
176
     0
290
     0
176
     0
 90
       50
176
     0
 40
0.0
176
     0
 40
1.0
176
     0
 90
        0
176
     0
 62
    18
420
        0
176
     0
 90
       50
176
     0
 90
        3
176
     0
 62
     5
420
      255
176
     0
290
     0
176
     0
 90
       50
176
     0
 90
       50
176
     0
 90
       50
176
     0
290
     0
176
     0
 90
       50
176
     0
 62
   256
176
     0
 40
1.0
176
     0
 90
        2
176
     0
  1
strokes_ogs.tif
176
     0
290
     0
176
     0
 40
1.0
176
     0
 40
1.0
176
     0
  0
VISUALSTYLE
  5
33
102
{ACAD_REACTORS
330
29
102
}
330
29
100
AcDbVisualStyle
  2
Realistic
 70
     8
177
     3
291
     0
 70
    58
 90
        2
176
     1
 90
        3
176
     1
 90
        0
176
     1
 90
        2
176
     1
 40
0.6
176
     1
 40
30.0
176
     1
 62
     7
420
 16777215
176
     1
 90
        0
176
     1
 90
        0
176
     1
 62
     7
176
     1
 62
   257
176
     1
 90
        1
176
     1
 90
        1
176
     1
 40
1.0
176
     1
 90
        8
176
     1
 62
   257
176
     1
 40
1.0
176
     1
 90
        1
176
     1
 90
        6
176
     1
 90
        2
176
     1
 62
     7
176
     1
 90
        3
176
     1
 90
        0
176
     1
 90
        0
176
     1
290
     0
176
     1
 90
       13
176
     1
 40
0.0
176
     1
 90
        0
176
     1
290
     0
176
     1
290
     1
176
     1
290
     1
176
     1
290
     0
176
     1
290
     0
176
     1
290
     0
176
     1
290
     0
176
     1
290
     0
176
     1
290
     0
176
     1
 90
       50
176
     1
 40
0.0
176
     1
 40
1.0
176
     1
 90
        0
176
     1
 62
    18
420
        0
176
     1
 90
       50
176
     1
 90
        3
176
     1
 62
     5
420
      255
176
     1
290
     0
176
     1
 90
       50
176
     1
 90
       50
176
     1
 90
       50
176
     1
290
     0
176
     1
 90
       50
176
     1
 62
   256
176
     0
 40
1.0
176
     0
 90
        2
176
     1
  1
strokes_ogs.tif
176
     1
290
     0
176
     1
 40
1.0
176
     1
 40
1.0
176
     1
  0
VISUALSTYLE
  5
3E
102
{ACAD_REACTORS
330
29
102
}
330
29
100
AcDbVisualStyle
  2
Shaded
 70
    27
177
     3
291
     0
 70
    58
 90
        2
176
     1
 90
        2
176
     1
 90
        1
176
     1
 90
        2
176
     1
 40
0.6
176
     1
 40
30.0
176
     1
 62
     7
420
 16777215
176
     1
 90
        0
176
     1
 90
        4
176
     1
 62
     7
176
     1
 62
   257
176
     1
 90
        1
176
     1
 90
        1
176
     1
 40
1.0
176
     1
 90
        8
176
     1
 62
   257
176
     1
 40
1.0
176
     1
 90
        1
176
     1
 90
        6
176
     1
 90
        2
176
     1
 62
     8
420
  7895160
176
     1
 90
        3
176
     1
 90
        0
176
     1
 90
        0
176
     1
290
     0
176
     1
 90
        5
176
     1
 40
0.0
176
     1
 90
        0
176
     1
290
     0
176
     1
290
     1
176
     1
290
     1
176
     1
290
     0
176
     1
290
     0
176
     1
290
     0
176
     1
290
     0
176
     1
290
     0
176
     1
290
     0
176
     1
 90
       50
176
     1
 40
0.0
176
     1
 40
1.0
176
     1
 90
        0
176
     1
 62
    18
420
        0
176
     1
 90
       50
176
     1
 90
        3
176
     1
 62
     5
420
      255
176
     1
290
     0
176
     1
 90
       50
176
     1
 90
       50
176
     1
 90
       50
176
     1
290
     0
176
     1
 90
       50
176
     1
 62
   256
176
     0
 40
1.0
176
     0
 90
        2
176
     1
  1
strokes_ogs.tif
176
     1
290
     0
176
     1
 40
1.0
176
     1
 40
1.0
176
     1
  0
VISUALSTYLE
  5
3D
102
{ACAD_REACTORS
330
29
102
}
330
29
100
AcDbVisualStyle
  2
Shaded with edges
 70
    26
177
     3
291
     0
 70
    58
 90
        2
176
     1
 90
        2
176
     1
 90
        1
176
     1
 90
        2
176
     1
 40
0.6
176
     1
 40
30.0
176
     1
 62
     7
420
 16777215
176
     1
 90
        1
176
     1
 90
        2
176
     1
 62
     7
176
     1
 62
   257
176
     1
 90
        2
176
     1
 90
        1
176
     1
 40
1.0
176
     1
 90
        8
176
     1
 62
   257
176
     1
 40
1.0
176
     1
 90
        1
176
     1
 90
        6
176
     1
 90
        2
176
     1
 62
     7
176
     1
 90
        3
176
     1
 90
        0
176
     1
 90
        0
176
     1
290
     0
176
     1
 90
        5
176
     1
 40
0.0
176
     1
 90
        0
176
     1
290
     0
176
     1
290
     1
176
     1
290
     1
176
     1
290
     0
176
     1
290
     0
176
     1
290
     0
176
     1
290
     0
176
     1
290
     0
176
     1
290
     0
176
     1
 90
       50
176
     1
 40
0.0
176
     1
 40
1.0
176
     1
 90
        0
176
     1
 62
    18
420
        0
176
     1
 90
       50
176
     1
 90
        3
176
     1
 62
     5
420
      255
176
     1
290
     0
176
     1
 90
       50
176
     1
 90
       50
176
     1
 90
       50
176
     1
290
     0
176
     1
 90
       50
176
     1
 62
   256
176
     0
 40
1.0
176
     0
 90
        2
176
     1
  1
strokes_ogs.tif
176
     1
290
     0
176
     1
 40
1.0
176
     1
 40
1.0
176
     1
  0
VISUALSTYLE
  5
3A
102
{ACAD_REACTORS
330
29
102
}
330
29
100
AcDbVisualStyle
  2
Shades of Gray
 70
    23
177
     3
291
     0
 70
    58
 90
        2
176
     1
 90
        2
176
     1
 90
        3
176
     1
 90
        0
176
     1
 40
0.6
176
     1
 40
30.0
176
     1
 62
     7
420
 16777215
176
     1
 90
        2
176
     1
 90
        2
176
     1
 62
     7
176
     1
 62
     7
176
     1
 90
        1
176
     1
 90
        1
176
     1
 40
40.0
176
     1
 90
        8
176
     1
 62
     7
176
     1
 40
1.0
176
     1
 90
        1
176
     1
 90
        6
176
     1
 90
        2
176
     1
 62
     7
176
     1
 90
        3
176
     1
 90
        0
176
     1
 90
        0
176
     1
290
     0
176
     1
 90
        1
176
     1
 40
0.0
176
     1
 90
        0
176
     1
290
     0
176
     1
290
     1
176
     1
290
     1
176
     1
290
     0
176
     1
290
     0
176
     1
290
     0
176
     1
290
     0
176
     1
290
     0
176
     1
290
     0
176
     1
 90
       50
176
     1
 40
0.0
176
     1
 40
1.0
176
     1
 90
        0
176
     1
 62
    18
420
        0
176
     1
 90
       50
176
     1
 90
        3
176
     1
 62
     5
420
      255
176
     1
290
     0
176
     1
 90
       50
176
     1
 90
       50
176
     1
 90
       50
176
     1
290
     0
176
     1
 90
       50
176
     1
 62
   256
176
     0
 40
1.0
176
     0
 90
        2
176
     1
  1
strokes_ogs.tif
176
     1
290
     0
176
     1
 40
1.0
176
     1
 40
1.0
176
     1
  0
VISUALSTYLE
  5
3B
102
{ACAD_REACTORS
330
29
102
}
330
29
100
AcDbVisualStyle
  2
Sketchy
 70
    24
177
     3
291
     0
 70
    58
 90
        1
176
     1
 90
        2
176
     1
 90
        2
176
     1
 90
        0
176
     1
 40
0.6
176
     1
 40
30.0
176
     1
 62
     7
420
 16777215
176
     1
 90
        2
176
     1
 90
        2
176
     1
 62
     7
176
     1
 62
     7
176
     1
 90
        1
176
     1
 90
        1
176
     1
 40
40.0
176
     1
 90
       11
176
     1
 62
     7
176
     1
 40
1.0
176
     1
 90
        1
176
     1
 90
        6
176
     1
 90
        2
176
     1
 62
     7
176
     1
 90
        6
176
     1
 90
        0
176
     1
 90
        0
176
     1
290
     0
176
     1
 90
        1
176
     1
 40
0.0
176
     1
 90
        0
176
     1
290
     0
176
     1
290
     1
176
     1
290
     1
176
     1
290
     0
176
     1
290
     0
176
     1
290
     0
176
     1
290
     0
176
     1
290
     0
176
     1
290
     0
176
     1
 90
       50
176
     1
 40
0.0
176
     1
 40
1.0
176
     1
 90
        0
176
     1
 62
    18
420
        0
176
     1
 90
       50
176
     1
 90
        3
176
     1
 62
     5
420
      255
176
     1
290
     0
176
     1
 90
       50
176
     1
 90
       50
176
     1
 90
       50
176
     1
290
     0
176
     1
 90
       50
176
     1
 62
   256
176
     0
 40
1.0
176
     0
 90
        2
176
     1
  1
strokes_ogs.tif
176
     1
290
     0
176
     1
 40
1.0
176
     1
 40
1.0
176
     1
  0
VISUALSTYLE
  5
36
102
{ACAD_REACTORS
330
29
102
}
330
29
100
AcDbVisualStyle
  2
Thicken
 70
    13
177
     3
291
     1
 70
    58
 90
        2
176
     1
 90
        2
176
     1
 90
        0
176
     1
 90
        0
176
     1
 40
0.6
176
     1
 40
30.0
176
     1
 62
     7
420
 16777215
176
     1
 90
        1
176
     1
 90
        4
176
     1
 62
     7
176
     1
 62
   257
176
     1
 90
        1
176
     1
 90
        1
176
     1
 40
1.0
176
     1
 90
       12
176
     1
 62
     7
176
     1
 40
1.0
176
     1
 90
        1
176
     1
 90
        6
176
     1
 90
        2
176
     1
 62
     7
176
     1
 90
        5
176
     1
 90
        0
176
     1
 90
        0
176
     1
290
     0
176
     1
 90
        1
176
     1
 40
0.0
176
     1
 90
        0
176
     1
290
     0
176
     1
290
     1
176
     1
290
     1
176
     1
290
     0
176
     1
290
     0
176
     1
290
     0
176
     1
290
     0
176
     1
290
     0
176
     1
290
     0
176
     1
 90
       50
176
     1
 40
0.0
176
     1
 40
1.0
176
     1
 90
        0
176
     1
 62
    18
420
        0
176
     1
 90
       50
176
     1
 90
        3
176
     1
 62
     5
420
      255
176
     1
290
     0
176
     1
 90
       50
176
     1
 90
       50
176
     1
 90
       50
176
     1
290
     0
176
     1
 90
       50
176
     1
 62
   256
176
     0
 40
1.0
176
     0
 90
        2
176
     1
  1
strokes_ogs.tif
176
     1
290
     0
176
     1
 40
1.0
176
     1
 40
1.0
176
     1
  0
VISUALSTYLE
  5
30
102
{ACAD_REACTORS
330
29
102
}
330
29
100
AcDbVisualStyle
  2
Wireframe
 70
     5
177
     3
291
     0
 70
    58
 90
        0
176
     1
 90
        2
176
     1
 90
        0
176
     1
 90
        0
176
     1
 40
0.6
176
     1
 40
30.0
176
     1
 62
     7
420
 16777215
176
     1
 90
        1
176
     1
 90
        4
176
     1
 62
     7
176
     1
 62
   257
176
     1
 90
        1
176
     1
 90
        1
176
     1
 40
1.0
176
     1
 90
        0
176
     1
 62
   257
176
     1
 40
1.0
176
     1
 90
        1
176
     1
 90
        6
176
     1
 90
        2
176
     1
 62
     7
176
     1
 90
        3
176
     1
 90
        0
176
     1
 90
        0
176
     1
290
     0
176
     1
 90
        1
176
     1
 40
0.0
176
     1
 90
        0
176
     1
290
     0
176
     1
290
     1
176
     1
290
     1
176
     1
290
     0
176
     1
290
     0
176
     1
290
     0
176
     1
290
     0
176
     1
290
     0
176
     1
290
     0
176
     1
 90
       50
176
     1
 40
0.0
176
     1
 40
1.0
176
     1
 90
        0
176
     1
 62
    18
420
        0
176
     1
 90
       50
176
     1
 90
        3
176
     1
 62
     5
420
      255
176
     1
290
     0
176
     1
 90
       50
176
     1
 90
       50
176
     1
 90
       50
176
     1
290
     0
176
     1
 90
       50
176
     1
 62
   256
176
     0
 40
1.0
176
     0
 90
        2
176
     1
  1
strokes_ogs.tif
176
     1
290
     0
176
     1
 40
1.0
176
     1
 40
1.0
176
     1
  0
VISUALSTYLE
  5
3C
102
{ACAD_REACTORS
330
29
102
}
330
29
100
AcDbVisualStyle
  2
X-Ray
 70
    25
177
     3
291
     0
 70
    58
 90
        2
176
     1
 90
        2
176
     1
 90
        1
176
     1
 90
        1
176
     1
 40
0.5
176
     1
 40
30.0
176
     1
 62
     7
420
 16777215
176
     1
 90
        1
176
     1
 90
        0
176
     1
 62
     7
176
     1
 62
   257
176
     1
 90
        1
176
     1
 90
        1
176
     1
 40
1.0
176
     1
 90
        8
176
     1
 62
     7
176
     1
 40
1.0
176
     1
 90
        1
176
     1
 90
        6
176
     1
 90
        2
176
     1
 62
     7
176
     1
 90
        3
176
     1
 90
        0
176
     1
 90
        0
176
     1
290
     0
176
     1
 90
       13
176
     1
 40
0.0
176
     1
 90
        0
176
     1
290
     0
176
     1
290
     1
176
     1
290
     1
176
     1
290
     0
176
     1
290
     0
176
     1
290
     0
176
     1
290
     0
176
     1
290
     0
176
     1
290
     0
176
     1
 90
       50
176
     1
 40
0.0
176
     1
 40
1.0
176
     1
 90
        0
176
     1
 62
    18
420
        0
176
     1
 90
       50
176
     1
 90
        3
176
     1
 62
     5
420
      255
176
     1
290
     0
176
     1
 90
       50
176
     1
 90
       50
176
     1
 90
       50
176
     1
290
     0
176
     1
 90
       50
176
     1
 62
   256
176
     0
 40
1.0
176
     0
 90
        2
176
     1
  1
strokes_ogs.tif
176
     1
290
     0
176
     1
 40
1.0
176
     1
 40
1.0
176
     1
  0
DICTIONARYVAR
  5
3AB
102
{ACAD_REACTORS
330
3A6
102
}
330
3A6
100
DictionaryVariables
280
     0
  1
1:1
  0
DICTIONARYVAR
  5
3A8
102
{ACAD_REACTORS
330
3A6
102
}
330
3A6
100
DictionaryVariables
280
     0
  1
STANDARD
  0
DICTIONARYVAR
  5
3A7
102
{ACAD_REACTORS
330
3A6
102
}
330
3A6
100
DictionaryVariables
280
     0
  1
STANDARD
  0
DICTIONARYVAR
  5
3A9
102
{ACAD_REACTORS
330
3A6
102
}
330
3A6
100
DictionaryVariables
280
     0
  1
Imperial24
  0
DICTIONARYVAR
  5
3AA
102
{ACAD_REACTORS
330
3A6
102
}
330
3A6
100
DictionaryVariables
280
     0
  1
Imperial24
  0
DICTIONARY
  5
1A
330
19
100
AcDbDictionary
280
     1
281
     1
  3
BUMPTILE
360
1C
  3
DIFFUSETILE
360
1B
  3
OPACITYTILE
360
1F
  3
REFLECTIONTILE
360
1E
  3
REFRACTIONTILE
360
20
  3
SPECULARTILE
360
1D
  0
DICTIONARY
  5
12
330
11
100
AcDbDictionary
280
     1
281
     1
  3
BUMPTILE
360
14
  3
DIFFUSETILE
360
13
  3
OPACITYTILE
360
17
  3
REFLECTIONTILE
360
16
  3
REFRACTIONTILE
360
18
  3
SPECULARTILE
360
15
  0
DICTIONARY
  5
22
330
21
100
AcDbDictionary
280
     1
281
     1
  3
BUMPTILE
360
24
  3
DIFFUSETILE
360
23
  3
OPACITYTILE
360
27
  3
REFLECTIONTILE
360
26
  3
REFRACTIONTILE
360
28
  3
SPECULARTILE
360
25
  0
DICTIONARY
  5
3AC
330
65
100
AcDbDictionary
280
     1
281
     1
  3
ACAD_ROUNDTRIP_2008_TABLESTYLE_CELLSTYLEMAP
360
3AD
  0
XRECORD
  5
1C
102
{ACAD_REACTORS
330
1A
102
}
330
1A
100
AcDbXrecord
280
     1
270
     1
271
     1
  0
XRECORD
  5
1B
102
{ACAD_REACTORS
330
1A
102
}
330
1A
100
AcDbXrecord
280
     1
270
     1
271
     1
  0
XRECORD
  5
1F
102
{ACAD_REACTORS
330
1A
102
}
330
1A
100
AcDbXrecord
280
     1
270
     1
271
     1
  0
XRECORD
  5
1E
102
{ACAD_REACTORS
330
1A
102
}
330
1A
100
AcDbXrecord
280
     1
270
     1
271
     1
  0
XRECORD
  5
20
102
{ACAD_REACTORS
330
1A
102
}
330
1A
100
AcDbXrecord
280
     1
270
     1
271
     1
  0
XRECORD
  5
1D
102
{ACAD_REACTORS
330
1A
102
}
330
1A
100
AcDbXrecord
280
     1
270
     1
271
     1
  0
XRECORD
  5
14
102
{ACAD_REACTORS
330
12
102
}
330
12
100
AcDbXrecord
280
     1
270
     1
271
     1
  0
XRECORD
  5
13
102
{ACAD_REACTORS
330
12
102
}
330
12
100
AcDbXrecord
280
     1
270
     1
271
     1
  0
XRECORD
  5
17
102
{ACAD_REACTORS
330
12
102
}
330
12
100
AcDbXrecord
280
     1
270
     1
271
     1
  0
XRECORD
  5
16
102
{ACAD_REACTORS
330
12
102
}
330
12
100
AcDbXrecord
280
     1
270
     1
271
     1
  0
XRECORD
  5
18
102
{ACAD_REACTORS
330
12
102
}
330
12
100
AcDbXrecord
280
     1
270
     1
271
     1
  0
XRECORD
  5
15
102
{ACAD_REACTORS
330
12
102
}
330
12
100
AcDbXrecord
280
     1
270
     1
271
     1
  0
XRECORD
  5
24
102
{ACAD_REACTORS
330
22
102
}
330
22
100
AcDbXrecord
280
     1
270
     1
271
     1
  0
XRECORD
  5
23
102
{ACAD_REACTORS
330
22
102
}
330
22
100
AcDbXrecord
280
     1
270
     1
271
     1
  0
XRECORD
  5
27
102
{ACAD_REACTORS
330
22
102
}
330
22
100
AcDbXrecord
280
     1
270
     1
271
     1
  0
XRECORD
  5
26
102
{ACAD_REACTORS
330
22
102
}
330
22
100
AcDbXrecord
280
     1
270
     1
271
     1
  0
XRECORD
  5
28
102
{ACAD_REACTORS
330
22
102
}
330
22
100
AcDbXrecord
280
     1
270
     1
271
     1
  0
XRECORD
  5
25
102
{ACAD_REACTORS
330
22
102
}
330
22
100
AcDbXrecord
280
     1
270
     1
271
     1
  0
CELLSTYLEMAP
  5
3AD
102
{ACAD_REACTORS
330
3AC
102
}
330
3AC
100
AcDbCellStyleMap
 90
        3
300
CELLSTYLE
  1
TABLEFORMAT_BEGIN
 90
        5
170
     1
 91
        0
 92
    32768
 62
   257
 93
        1
300
CONTENTFORMAT
  1
CONTENTFORMAT_BEGIN
 90
        0
 91
        0
 92
      512
 93
        0
300

 40
0.0
140
1.0
 94
        5
 62
     0
340
55
144
0.25
309
CONTENTFORMAT_END
171
     0
 94
        0
309
TABLEFORMAT_END
  1
CELLSTYLE_BEGIN
 90
        1
 91
        1
300
_TITLE
309
CELLSTYLE_END
300
CELLSTYLE
  1
TABLEFORMAT_BEGIN
 90
        5
170
     1
 91
        0
 92
        0
 62
   257
 93
        1
300
CONTENTFORMAT
  1
CONTENTFORMAT_BEGIN
 90
        0
 91
        0
 92
      512
 93
        0
300

 40
0.0
140
1.0
 94
        5
 62
     0
340
55
144
0.18
309
CONTENTFORMAT_END
171
     0
 94
        0
309
TABLEFORMAT_END
  1
CELLSTYLE_BEGIN
 90
        2
 91
        1
300
_HEADER
309
CELLSTYLE_END
300
CELLSTYLE
  1
TABLEFORMAT_BEGIN
 90
        5
170
     1
 91
        0
 92
        0
 62
   257
 93
        1
300
CONTENTFORMAT
  1
CONTENTFORMAT_BEGIN
 90
        0
 91
        0
 92
      512
 93
        0
300

 40
0.0
140
1.0
 94
        2
 62
     0
340
55
144
0.18
309
CONTENTFORMAT_END
171
     0
 94
        0
309
TABLEFORMAT_END
  1
CELLSTYLE_BEGIN
 90
        3
 91
        2
300
_DATA
309
CELLSTYLE_END
  0
ENDSEC
  0
EOF
